Misc Cartoons

Rango - Welcome To Dirt tab

Misc Cartoons

chords
tabs
bass
ukulele
keyboards
drums
flute
harmonica
guitar pro
Ultimate-Tabs

Rango - Welcome To Dirt

e|---------------------------------------------------------------------------| 
B|---------------------------------------------------------------------------| 
G|---------5--7/9-----7--(7)-(7)-----------5--7--5---7-----------------------| 
D|--5--7--------------5--(5)-(5)---5--7--------------7-----------------------| 
A|---------------------------------------------------------------------------| 
E|---------------------------------------------------------------------------| 

e|---------------------------------------------------------------------------| 
B|---------------------------------------------------------------------------| 
G|--------5------------------5---------------5-------------------------------| 
D|----5---5--------------7------5--------7------5----------------------------| 
A|--------7------------------------------------------------------------------| 
E|---------------------------------------------------------------------------| 

e|---------------------------------------------------------------------------| 
B|---------------------------------------------------------------------------| 
G|---------5-----------------5----------------------5--7---------------------| 
D|---5h7------7~~~-------5h7-----5~~~---------5h7----------------------------| 
A|---------------------------------------------------------------------------| 
E|---------------------------------------------------------------------------| 

e|---------------------------------------------------------------------------| 
B|---------------------------------------------------------------------------| 
G|--7h9p7/5--------------------5---------------------------------------------| 
D|----------5--------------5h7---7----------------------9-5----7-------------| 
A|-------------------------------------------------------------7-------------| 
E|-------------------------------------------------------------5-------------| 
  
less
plus
Add to Songbook Print Version How to play lesson Submit videolesson
Click the best TAGS for this song:
None of them
Contributor: TamiMr_R Correct

If you can not find the chords or tabs you want, look at our partner E-chords. If you are a premium member, you have total access to our video lessons.

If you find a wrong Bad To Me from Misc Cartoons, click the correct button above.

login/signup
my songbooks
my recent views
my submits