Panic! At The Disco

build god then we will talk tab

Panic! At The Disco

chords
tabs
bass
ukulele
keyboards
drums
flute
harmonica
guitar pro
Ultimate-Tabs

build god then we will talk

e-------------------------------------------------| 
b-------------------------------------------------| 
g---11----9----9----7-----11----9----7----7-9-11--| 
d-9-----7----7----5-------------------------------| 
a----------------------10-----9----8----9---------| 
e-------------------------------------------------| 
 
intro rhythm 
e----|----------| 
b----|----------| 
g----|----------| 
d-4x-|-9---7-7/-| 
a-4x-|-------7/-| 
e-2x-|---7---5/-| 
 
pre Chorus {right before your very lalala eyes...} 
e--------------------------| 
b--------------------------| 
g--------------------------| 
d-9---7-7/5-5-4-4-3-3-4-4x-| 
a-------7/5-5-4-4-3-3-4-4x-| 
e---7---5/3-3-2-2-1-1-2-2x-| 
 
Chorus {inside, what a wonderful...} 
e-------------------------------------------------| 
b-------------------------------------------------| 
g-4x-4--7x-7--------------4x-4--9x-9--7x-7--------| 
d-4x-4--7x-7--5x-5--2x-2--4x-4--9x-9--7x-7--xx-4--| 
a-2x-2--5x-5--5x-5--2x-2--2x-2--7x-7--5x-5--xx-4--| 
e-------------3x-3--0x-0--------------------xx-2--| 
 
Bit before verse {tonight's tenants range from...} 
e----15-15----15-15-----15-15----15-15----15-15----15-15----15-15----14-14-| 
b--------------------12-12-12-12-12-12-------------------12-12-12-11-11-11-| 
g-12-12-12-12-12-12--------------------12-12-12-12-12-12-------------------| 
d--------------------------------------------------------------------------| 
a--------------------------------------------------------------------------| 
e--------------------------------------------------------------------------| 
 
verse {she's getting a job...} 
e---------------------------------------------| 
b---------------------------------------------| 
g---------------------------------------------| 
d-2-2-2-4-4-4-5-5-5-7-7-7-2-2-2-4-4-4-5-5-5-8-| 
a-2-2-2-4-4-4-5-5-5-7-7-7-2-2-2-4-4-4-5-5-5-8-| 
e-0-0-0-2-2-2-3-3-3-5-5-5-0-0-0-2-2-2-3-3-3-6-| 
 
verse continued {moonlighting lighting aside, she really needs his money...} 
e---------------------------------------------| 
b---------------------------------------------| 
g---------------------------------------------| 
d-9-9-9-8-8-8-7-7-7-6-6-6-5-5-5-4-4-4-2-2-2-4-| 
a-9-9-9-8-8-8-7-7-7-6-6-6-5-5-5-4-4-4-2-2-2-4-| 
e-7-7-7-6-6-6-5-5-5-4-4-4-3-3-3-2-2-2-0-0-0-2-| 
 
intro lead/intro rhythm 
 
pre Chorus {and held a purse of a different kind} 
e--------------------------------| 
b--------------------------------| 
g--------------------------------| 
d-5-5-4-4-3-3-4-4-5-5-5-5-4-4-4x-| 
a-5-5-4-4-3-3-4-4-5-5-5-5-4-4-4x-| 
e-3-3-2-2-1-1-2-2-3-3-3-3-2-2-2x-| 
 
Chorus 
 
pre outro thing {there are no} 
e-14-10----14-10----14-10----14-10----14-10----| 
b-------12-------14-------12-------14-------12-| 
g----------------------------------------------| 
d----------------------------------------------| 
a----------------------------------------------| 
e----------------------------------------------| 
 
bridge 1 {raindrops on roses and girls in white dresses...} 
e------------------------- 
b-------------------------| 
g-------------------------| 
d-5-5-5-5-5-5-9-9-9-9-9-9-| 
a-5-5-5-5-5-5-9-9-9-9-9-9-| 
e-3-3-3-3-3-3-7-7-7-7-7-7-| 
 
bridge 2 {at the shade of the sheets and before all the stains...} 
e---------------------------------------------| 
b---------------------------------------------| 
g---------------------------------------------| 
d-2-2-2-4-4-4-5-5-5-7-7-7-2-2-2-4-4-4-5-5-5-8-| 
a-2-2-2-4-4-4-5-5-5-7-7-7-2-2-2-4-4-4-5-5-5-8-| 
e-0-0-0-2-2-2-3-3-3-5-5-5-0-0-0-2-2-2-3-3-3-6-| 
 
bridge 3 {raindrops on roses and girls in white dresses...} 
e-------------------------------------------------| 
b-------------------------------------------------| 
g-------------------------------------------------| 
d-9-9-9-8-8-8-7-7-7-6-6-6-5-5-5-4-4-4-2-2-2-4-4-4-| 
a-9-9-9-8-8-8-7-7-7-6-6-6-5-5-5-4-4-4-2-2-2-4-4-4-| 
e-7-7-7-6-6-6-5-5-5-4-4-4-3-3-3-2-2-2-0-0-0-2-2-2-| 
 
bridge 4 {at the shade of the sheets and before all the stains...} 
e--------------------------------------------------------| 
b--------------------------------------------------------| 
g-----------------------------------------------------7~-| 
d-9-9-9-8-8-8-7-7-7-6-6-6-5-5-5-4-4-4-2-2-2-4-4-4-5~--7~-| 
a-9-9-9-8-8-8-7-7-7-6-6-6-5-5-5-4-4-4-2-2-2-4-4-4-5~--5~-| 
e-7-7-7-6-6-6-5-5-5-4-4-4-3-3-3-2-2-2-0-0-0-2-2-2-3~-----| 
 
gentle/soft Chorus {inside, what a wonderful} 
e-------------------------------------------| 
b-------------------------------------------| 
g----9------------12--------9-----------7---| 
d------9-------12----12-------9-------7---7-| 
a-9~-----9-10~---------------------7~-------| 
e-----------------------10~-----10----------| 
 
gentle/soft Chorus continued {caricature of intimacy} 
e-------------------------------------------| 
b-------------------------------------------| 
g----9------------12--------9-----------7---| 
d------9-------12----12-------9-------7---7-| 
a-9~-----9-10~------------------------------| 
e-----------------------10~-----10-9~-------| 
 
gentle/soft Chorus 
 
prebridge 
e---------------------------| 
b---------------------------| 
g---------------------------| 
d-9~-9~-9~-9~-9~-9~-11~-11~-| 
a---------------------------| 
e---------------------------| 
 
bridge orchestra 
e--------------------------------------------------------------------------------------------------------| 
b--------------------------------------------------------------------------------------------------------| 
g--------------------------------------------------------------------------------------------------------| 
d--------------------------------------------------------------------------------------------------------| 
a-9~----------------12-9-9-10-9-9------------------------------------9~-10-9--------9--------------------| 
e----10~-10-9-10-10---------------12-12-12-9-9-9-9-10-12-7-7-7-9-9-9---------12~-12---12-10~-10-12-10-9~-| 
 
bridge orchestra bass 
e-------------------------------------------------------------------------------------------------| 
b-------------------------------------------------------------------------------------------------| 
g-------------------------------------------------------------------------------------------------| 
d-------------------------------------------------------------------------------------------------| 
a-------------------------------------------------------------------------------------------------| 
e-3-3-3-3-3-3-7-7-7-7-7-7-3-3-3-3-3-3-7-7-7-7-7-7-0-0-0-2-2-2-3-3-3-5-5-5-0-0-0-2-2-2-3-3-3-5-5-5-| 
 
bridges 1, 2, 3 
 
end bridge rhythm 
e--------------------------------------------------| 
b--------------------------------------------------| 
g-------------------------------------------6~-----| 
d-9-9-9-8-8-8-7-7-7-6-6-6-5-5-5-4-4-4-2-2-2-6~--4~-| 
a-9-9-9-8-8-8-7-7-7-6-6-6-5-5-5-4-4-4-2-2-2-4~--4~-| 
e-7-7-7-6-6-6-5-5-5-4-4-4-3-3-3-2-2-2-0-0-0-----2~-| 
 
end bridge lead 
e-----------------------------------------------------| 
b-----------------------------------------------------| 
g-4-4-4-6-6-6-7-7-7-9-9-9-11-11-11-7-7-7-9-9-9-6~--3~-| 
d-x-x-x-x-x-x-x-x-x-x-x-x--x--x--x-x-x-x-x-x-x-x---x--| 
a-2-2-2-4-4-4-5-5-5-7-7-7--9--9--9-5-5-5-7-7-7-4~--1~-| 
e-----------------------------------------------------| 
 
{there are no...} 
 
E-13-------------13-16-13-13-14-13-13---------------------------------------| 
B----14-14-13-14----------------------14-14-14-13-13-13-13/14/13-11-11-11---| 
G---------------------------------------------------------------------------| 
D---------------------------------------------------------------------------| 
A---------------------------------------------------------------------------| 
E---------------------------------------------------------------------------| 
 
continuedd 
E------------13/14/13-11-11-13-11-------------11----------------------------| 
B--13-13-13-----------------------14-14-14-14----14-13----------------------| 
G---------------------------------------------------------------------------| 
D---------------------------------------------------------------------------| 
A---------------------------------------------------------------------------| 
E---------------------------------------------------------------------------|  
less
plus
Add to Songbook Print Version How to play lesson Submit videolesson
Click the best TAGS for this song:
None of them
Contributor: roflfark Correct

If you can not find the chords or tabs you want, look at our partner E-chords. If you are a premium member, you have total access to our video lessons.

If you find a wrong Bad To Me from Panic! At The Disco, click the correct button above.

login/signup
my songbooks
my recent views
my submits