Panic! At The Disco

But if is better if we do tab

Panic! At The Disco

chords
tabs
bass
ukulele
keyboards
drums
flute
harmonica
guitar pro
Ultimate-Tabs

But if is better if we do

Tuning: Drop D 
~!KEY!~ 
{.} = palm mute 
{/} = slide 
{x} = break/rest 
 
 
Intro 
E|--------| 
B|--1//3--| 
G|--2//4--| 
D|--2//4--| 
A|--------| 
D|--------| 
 
    .  . (0:12) 
E|--------| 
B|--1//3--| 
G|--2//4--| 
D|--2//4--| 
A|--------| 
D|--------| 
 
Pre-Chorus 
(0:23) 
E|----------------| 
b|----------------| 
G|----------------| 
D|--0-x-02-x-//33-| 
A|--0-x-02-x-//33-| 
D|--0-x-02-x-//33-| 
 
 
Chorus 
(0:29) 
E|--------------| 
B|--------------| 
G|--------------| 
D|--7--10--3--0-| 
A|--7--10--3--0-| 
D|--7--10--3--0-| 
 
E|-----------| 
B|-----------| 
G|-----------| 
D|--7--10--0-| 
A|--7--10--0-| 
D|--7--10--0-| 
 
Verse 2 
(1:03) 
E|--------| 
B|--1//3--| 
G|--2//4--| 
D|--2//4--| 
A|--------| 
D|--------| 
 
    .  . (1:08) 
E|--------| 
B|--1//3--| 
G|--2//4--| 
D|--2//4--| 
A|--------| 
D|--------| 
 
Chorus 
(1:20) 
 
E|--------------| 
B|--------------| 
G|--------------| 
D|--7--10--3--0-| 
A|--7--10--3--0-| 
D|--7--10--3--0-| 
 
E|-----------| 
B|-----------| 
G|-----------| 
D|--7--10--0-| 
A|--7--10--0-| 
D|--7--10--0-| 
 
Bridge 
(1:42) 
 
E|----- 
B|----- 
G|----- 
D|--7-- 
A|--7-- 
D|--7-- 
 
(1:49) 
E|--------| 
B|--1//3--| 
G|--2//4--| 
D|--2//4--| 
A|--------| 
D|--------| 
 
Chorus 
(2:23) 
E|--------------| 
B|--------------| 
G|--------------| 
D|--7--10--3--0-| 
A|--7--10--3--0-| 
D|--7--10--3--0-| 
 
E|-----------| 
B|-----------| 
G|-----------| 
D|--7--10--0-| 
A|--7--10--0-| 
D|--7--10--0-| 
 
(2:43) 
E|------| 
B|------| 
G|------| 
D|--0---| 
A|--0---| 
D|--0---| 
 
Outro 
It starts with him playing it on the keybaord; the guitar 
comes in at 3:08) 
           (X2) 
E|------------| 
B|------------| 
G|------5--5--| 
D|----2-------| 
A|--0---------| 
D|------------| 
          (X1) 
E|------------| 
B|-------3--3-| 
G|----5-------| 
D|--4---------| 
A|------------| 
D|------------| 
         (X1) 
E|-----------| 
B|-----------| 
G|----4--5-5-| 
D|--4--------| 
A|-----------| 
D|-----------| 
 
less
plus
Add to Songbook Print Version How to play lesson Submit videolesson
Click the best TAGS for this song:
None of them
Contributor: taavpino Correct

If you can not find the chords or tabs you want, look at our partner E-chords. If you are a premium member, you have total access to our video lessons.

If you find a wrong Bad To Me from Panic! At The Disco, click the correct button above.

login/signup
my songbooks
my recent views
my submits