Vanessa Hudgens

Say Ok (ver. 2) tab

Vanessa Hudgens

tools Ultimate Tabs

Start AutoScroll Font Size Down Font Size Up

Find us on Facebook

chords
tabs
bass
ukulele
keyboards
drums
flute
harmonica
guitar pro
Ultimate-Tabs

Say Ok (ver. 2)

Intro: 
part one  e-11--------11--------11--------11--------| 
          b----12--------12--------12--------12-----| 
          g-------13--------13--------13--------13--| 
          d-----------------------------------------| 
          a-----------------------------------------| 
          e-----------------------------------------| 

part two  e-10--------10--------10--------10--------| 
          b----12--------12--------12--------12-----| 
          g-------12--------12--------12--------12--| 
          d-----------------------------------------| 
          a-----------------------------------------| 
          e-----------------------------------------| 


Verse one is a repeat of the intro until "but I don't wanna be into you, if you're not  
for true love", which goes: 

e-13--------13--------13--------13--------| 
b----15--------15--------15--------15-----| 
g-------14--------14--------14--------14--|  Then you play pt. 1, then repeat 
d-----------------------------------------| 
a-----------------------------------------| 
e-----------------------------------------| 
Chorus Am When it's not alright When it's not ok C G D Will you try to make me feel better We say alright Am We say ok C G D Will you stick with me through whatever G D Or run away, Say ok
less
plus
Add to Songbook Print Version How to play lesson Submit videolesson
Click the best TAGS for this song:
None of them
Contributor: algelill Correct

If you can not find the chords or tabs you want, look at our partner E-chords. If you are a premium member, you have total access to our video lessons.

If you find a wrong Bad To Me from Vanessa Hudgens, click the correct button above.

login/signup
my songbooks
my recent views
my submits