S 3 Doors Down

Better Life tab

3 Doors Down

Album:The Better Life

Year:2001

tools Ultimate Tabs

Start AutoScroll Font Size Down Font Size Up

Find us on Facebook

chords
tabs
bass
ukulele
keyboards
drums
flute
harmonica
guitar pro video
Ultimate-Tabs

Better Life

* = palm mute 
h = hammer on 
p = pull of 
b = full bend 
^ = hold bend 
v = vibrato 
~ = "vibrato-time" 
\ = slide down 
 
Use Metal-Distortion 
 
Standart tuned (EADGHe) 
 
 
Intro: 
(only 1st guitar) 
------------------------------------------------------------------------------ 
------------------------------------------------------------------------------ 
------------------------------------------------------------------------------ 
------------------------------------------------------------------------------ 
-2-4--4-4-4-2-4--4-4-4-7-4--4-4-4-2-4--4-4-4---------------------------------- 
-0-2--2-2-2-0-2--2-2-2-5-2--2-2-2-0-2--2-2-2---------------------------------- 
      *   *      *   *      *   *      *   * 
 
(then 1st + 2nd guitar) 
------------------------------------------------------------------------------ 
------------------------------------------------------------------------------ 
------------------------------------------------------------------------------ 
------------------------------------------------------------------------------ 
-9-4--4-4-4-2-4--4-4-4-7-4--4-4-4-2-4--4-4------------------------------------ 
-7-2--2-2-2-0-2--2-2-2-5-2--2-2-2-0-2--2-2------------------------------------ 
      *   *      *   *      *   *      * 
 
Verse: 
(only 2nd guitar) 
------------------------------------------------------------------------------ 
------------------------------------------------------------------------------ 
------------------------------------------------------------------------------ 
-------------7-----------------------------7--------9p7----------------------- 
-7h9-9-7-9p7----7h9-9-7-9p7----7h9-9-7-9p7----7h9-9--------------------------- 
----------------------------7------------------------------------------------- 
             
(then 1st + 2nd guitar) 
------------------------------------------------------------------------------ 
------------------------------------------------------------------------------ 
------------------------------------------------------------------------------ 
-------------7-----------------------------7---------------------------------- 
-7h9-9-7-9p7----7h9-9-7-9p7----7h9-9-7-9p7----7h9-9-7---7-9------------------- 
----------------------------7-------------------------7----------------------- 
 
 
------------------------------------------------------------------------------ 
------------------------------------------------------------------------------ 
------------------------------------------------------------------------------ 
-------------7-----------------------------7--------9p7----------------------- 
-7h9-9-7-9p7----7h9-9-7-9p7----7h9-9-7-9p7----7h9-9--------------------------- 
----------------------------7------------------------------------------------- 
 * * * * * *   * * * * * *   * * * * * *   * * * * 
 
------------------------------------------------------------------------------ 
------------------------------------------------------------------------------ 
------------------------------------------------------------------------------ 
-------------7-----------------------------7---------------------------------- 
-7h9-9-7-9p7----7h9-9-7-9p7----7h9-9-7-9p7----7h9-9-7---7-9------------------- 
----------------------------7-------------------------7----------------------- 
 * * * * * *   * * * * * *   * * * * * *   * * * * 
 
Chorus:  (2x) 
------------------------------------------------------------------------------ 
------------------------------------------------------------------------------ 
------------------------------------------------------------------------------ 
-4--5--7--5--4--7-7-7-7--9-9-9-9---------------------------------------------- 
-4--5--7--5--4--7-7-7-7--9-9-9-9---------------------------------------------- 
-2--3--5--3--2--5-5-5-5--7-7-7-7---------------------------------------------- 
   
                                                                             
Verse: 
------------------------------------------------------------------------------ 
------------------------------------------------------------------------------ 
------------------------------------------------------------------------------ 
-------------7-----------------------------7--------9p7----------------------- 
-7h9-9-7-9p7----7h9-9-7-9p7----7h9-9-7-9p7----7h9-9--------------------------- 
----------------------------7------------------------------------------------- 
 
 
------------------------------------------------------------------------------ 
------------------------------------------------------------------------------ 
------------------------------------------------------------------------------ 
-------------7-----------------------------7---------------------------------- 
-7h9-9-7-9p7----7h9-9-7-9p7----7h9-9-7-9p7----7h9-9-7---7-9------------------- 
----------------------------7-------------------------7----------------------- 
 
 
------------------------------------------------------------------------------ 
------------------------------------------------------------------------------ 
------------------------------------------------------------------------------ 
-------------7-----------------------------7--------9p7----------------------- 
-7h9-9-7-9p7----7h9-9-7-9p7----7h9-9-7-9p7----7h9-9--------------------------- 
----------------------------7------------------------------------------------- 
 * * * * * *   * * * * * *   * * * * * *   * * * * 
 
------------------------------------------------------------------------------ 
------------------------------------------------------------------------------ 
------------------------------------------------------------------------------ 
-------------7-----------------------------7---------------------------------- 
-7h9-9-7-9p7----7h9-9-7-9p7----7h9-9-7-9p7----7h9-9-7---7-9------------------- 
----------------------------7-------------------------7----------------------- 
 * * * * * *   * * * * * *   * * * * * *   * * * * 
 
Chorus:  (2x) 
------------------------------------------------------------------------------ 
------------------------------------------------------------------------------ 
------------------------------------------------------------------------------ 
-4--5--7--5--4--7-7-7-7--9-9-9-9---------------------------------------------- 
-4--5--7--5--4--7-7-7-7--9-9-9-9---------------------------------------------- 
-2--3--5--3--2--5-5-5-5--7-7-7-7---------------------------------------------- 
    
                                                                            
Verse: 
------------------------------------------------------------------------------ 
------------------------------------------------------------------------------ 
------------------------------------------------------------------------------ 
-------------7-----------------------------7--------9p7----------------------- 
-7h9-9-7-9p7----7h9-9-7-9p7----7h9-9-7-9p7----7h9-9--------------------------- 
----------------------------7------------------------------------------------- 
 
 
------------------------------------------------------------------------------ 
------------------------------------------------------------------------------ 
------------------------------------------------------------------------------ 
-------------7-----------------------------7---------------------------------- 
-7h9-9-7-9p7----7h9-9-7-9p7----7h9-9-7-9p7----7h9-9-7---7-9------------------- 
----------------------------7-------------------------7----------------------- 
 
 
Brige: (2x;clean) 
------------------------------------------------------------------------------ 
------------------------------------------------------------------------------ 
------------------------------------------------------------------------------ 
-2--4--5--7--9--11-2--4--5--11-9--7------------------------------------------- 
-x--x--x--x--x--x--x--x--x--x--x--x------------------------------------------- 
-0--2--3--5--7--9--0--2--3--9--7--5------------------------------------------- 
  
 
Solo: 
(1st guitar) 
------------------------------------------------------------------------------ 
----------------------------------------------12-10--------------------------- 
-b12^^^^-b12^^^^^^-v14~~~~14\\\\\\---11-------------12-11-v9~-v7~-v9~~~~~~~~~~ 
----------------------------------------11-12--------------------------------- 
------------------------------------------------------------------------------ 
------------------------------------------------------------------------------ 
 
(2nd guitar clean) 
------------------------------------------------------------------------------ 
------------------------------------------------------------------------------ 
------------------------------------------------------------------------------ 
-2--4--5--7--9--11-2--4--5--11-9--7--2--4--5--7--9--11----9----7---4---------- 
-x--x--x--x--x--x--x--x--x--x--x--x--x--x--x--x--x--x-----x----x---x---------- 
-0--2--3--5--7--9--0--2--3--9--7--5--0--2--3--5--7--9-----7----5---2---------- 
 
Verse: 
(only 2nd guitar) 
------------------------------------------------------------------------------ 
------------------------------------------------------------------------------ 
------------------------------------------------------------------------------ 
-------------7-----------------------------7--------9p7----------------------- 
-7h9-9-7-9p7----7h9-9-7-9p7----7h9-9-7-9p7----7h9-9--------------------------- 
----------------------------7------------------------------------------------- 
 
(then 1st + 2nd guitar) 
------------------------------------------------------------------------------ 
------------------------------------------------------------------------------ 
------------------------------------------------------------------------------ 
-------------7-----------------------------7---------------------------------- 
-7h9-9-7-9p7----7h9-9-7-9p7----7h9-9-7-9p7----7h9-9-7---7-9------------------- 
----------------------------7-------------------------7----------------------- 
 
 
------------------------------------------------------------------------------ 
------------------------------------------------------------------------------ 
------------------------------------------------------------------------------ 
-------------7-----------------------------7--------9p7----------------------- 
-7h9-9-7-9p7----7h9-9-7-9p7----7h9-9-7-9p7----7h9-9--------------------------- 
----------------------------7------------------------------------------------- 
 
 
------------------------------------------------------------------------------ 
------------------------------------------------------------------------------ 
------------------------------------------------------------------------------ 
-------------7-----------------------------7---------------------------------- 
-7h9-9-7-9p7----7h9-9-7-9p7----7h9-9-7-9p7----7h9-9-7---7-9------------------- 
----------------------------7-------------------------7----------------------- 
 
Chorus:  (4x) 
------------------------------------------------------------------------------ 
------------------------------------------------------------------------------ 
------------------------------------------------------------------------------ 
-4--5--7--5--4--7-7-7-7--9-9-9-9---------------------------------------------- 
-4--5--7--5--4--7-7-7-7--9-9-9-9---------------------------------------------- 
-2--3--5--3--2--5-5-5-5--7-7-7-7---------------------------------------------- 
 
outro: 
------------------------------------------------------------------------------ 
------------------------------------------------------------------------------ 
------------------------------------------------------------------------------ 
------------------------------------------------------------------------------ 
-2-4--4-4-4-2-4--4-4-4-7-4--4-4-4-2-4--4-4-4---------------------------------- 
-0-2--2-2-2-0-2--2-2-2-5-2--2-2-2-0-2--2-2-2---------------------------------- 
      *   *      *   *      *   *      *   *                 
 
------------------------------------------------------------------------------ 
------------------------------------------------------------------------------ 
------------------------------------------------------------------------------ 
------------------------------------------------------------------------------ 
-9-4--4-4-4-2-4--4-4-4-7-4--4-4-4-2-4--4-4------------------------------------ 
-7-2--2-2-2-0-2--2-2-2-5-2--2-2-2-0-2--2-2------------------------------------ 
      *   *      *   *      *   *      * 
less
plus
Add to Songbook Print Version How to play lesson Submit videolesson
Click the best TAGS for this song:
None of them
Contributor: merkHiro Correct

If you can not find the chords or tabs you want, look at our partner E-chords. If you are a premium member, you have total access to our video lessons.

If you find a wrong Bad To Me from 3 Doors Down, click the correct button above.

login/signup
my songbooks
my recent views
my submits