S 3 Doors Down

changes tab

3 Doors Down

Album:Away From the Sun

Year:2002

tools Ultimate Tabs

Start AutoScroll Font Size Down Font Size Up

Find us on Facebook

chords
tabs
bass
ukulele keyboards
drums
flute
harmonica
guitar pro video
Ultimate-Tabs

changes

Intro:  
  
   G              Bm    
e----3------------2----------  
b-------3-----3------3-----3-  
G--4-------4------------4----  
D----------------------------  
A-----------------2----------  
E--3-------------------------  
  
  
   G              Bm     Am  
e----3------------2-----------------------  
b-------3-----------------7--8--10--7--8--  
G--4-------4------------------------------  
D-----------------------------------------  
A-----------------2-----------------------  
E--3--------------------------------------  
  
  
   G              Bm    
e----3------------2----------  
b-------3-----3------3-----3-  
G--4-------4------------4----  
D----------------------------  
A-----------------2----------  
E--3-------------------------  
  
  
   G              Bm       
e----3------------2----------  
b-------3--------------------  
G--4-------4-----------------  
D----------------------------  
A-----------------2----------  
E--3-------------------------  
  
  
  Am           G           Am  
  
D--------7-----------5--------  
A-----7-----7-----5-----5-----  
E--5-----------3-----------7--
use intro durant o vs dtalhe chegando em Am G Am palhete I'm not supposed to be scared of anything /But I don't Know where I am I wish that I could move but I'm exhausted /and nobody understands (how I feel) I'm trying' hard to breathe now /But there's no air in my lungs There's no one here to talk to / And the pain inside is making me numb Try to hold this under control./ You can't help me,cause no one knows G Bm Now I'm goin' through changes , changes / G Bm God , I feel so frustrated lately / Am G Bm When I get suffocated, save me / Am Now I'm goin' through changes , changes / G Am D C Feelin' weak and weary/ rept intro td o vs (Am G Am palhete) Walkin' through this world alone/ Everything they say every world of it / Cuts me to the bone, (and I bleed)/ I've got something to say / But now I've got nowhere to turn/ It feel like I've been buried/ Underneath all the weight of the world/ I try to hold this under control/ They can't help me, cause no one knows/ G Bm Now I'm goin' through changes , changes / G Bm God I feel so frustrated latelay / Am G Bm When I get suffocated, save me / Am Now I'm goin' through changes , changes/ G Am D C I'm blind and shakin', bound and breakin' / D C D C I hope I'll make it, through all these changes/ G Bm Now I'm goin' through changes , changes/ G Bm God I feel so frustrated latelay / Am When I get suffocated, save me / G Am D C Now I feel apart, now I feel it / G Bm But I'm going through changes, changes/ G Bm God I feel so frustrated latelay / Am G And I get suffocated, I hate this / Bm Am D C But I'm going through changes , changes.
less
plus
Add to Songbook Print Version How to play lesson Submit videolesson
Click the best TAGS for this song:
None of them
Contributor: flipMing Correct

If you can not find the chords or tabs you want, look at our partner E-chords. If you are a premium member, you have total access to our video lessons.

If you find a wrong Bad To Me from 3 Doors Down, click the correct button above.

login/signup
my songbooks
my recent views
my submits