S 3 Doors Down

Loser bass

3 Doors Down

Album:The Better Life

Year:2001

tools Ultimate Tabs

Start AutoScroll Font Size Down Font Size Up

Find us on Facebook

Ultimate-Tabs

Loser

Intro

G|-------------------------|----------------------------|
D|-------------------------|----------------(7)---------|
A|----------------5-5-5----|------------5-5--5--5-------|
E|-(5)-2-22-2--2-------5-|--2-22-2--2-----------5-7-5-|

G|-----------------------|----------------------------|
D|-----------------------|----------------(7)---------|
A|--------------5-5-5----|------------5-5--5--5-------|
E|----2-22-2--2-------5-|--2-22-2--2-----------5-7-5-|

Estrofe 

G|-----------------------|----------------------------|
D|-----------------------|----------------(7)---------|
A|--------------5-5-5----|------------5-5--5--5-------|  x4
E|----2-22-2--2-------5-|--2-22-2--2-----------5-7-5-|

Refrão ("You're getting closer...")

G|------------------------------------9-x---------|
D|-----------------------(7)-------9----x---------|
A|-----(2h4)----------5-5-5-6-7-7----------7------|
E|-0-00-7-0--2-2-2--2--------------------------0:-|

G|------------------------------------9-x----------------|
D|-----------------------(7)--------9-x------------------|
A|-----(2h4)----------5-5-5-6-7-7-7-----(7h9p7)-7-(5)----|
E|-0-00-7-0--2-2-2--2---------------------------------0:-|

G|------------------------------------9-x---------|
D|-----------------------(7)-------9----x---------|
A|-----(2h4)----------5-5-5-6-7-7----------7------|
E|-0-00-7-0--2-2-2--2--------------------------0:-|

G|-----------------------|
D|-----------------------|
A|-----(2h4)----------5:-|
E|-0-00-7-0--2-2-2--2----|


Segue:
---------------
Intro

Estrofe

Refrão
---------------

Ponte

G|-----------------------------|---------------------------|
D|-----------------------------|---------------------------|
A|--------0--3-2:--------------|-----0--3-2:---------------|
E|-/8-2---------0--0-1-2--/8-|--2----------0--0-1-2--/8-|

G|--------------------------|----------------------------|
D|--------------------------|----------------------------|
A|-----0--3-2:--------------|-----00--3-2:---------------|
E|--2---------0--0-1-2--/8-|--2-----------0--0-1-2--/8-|

G|----------------------------|----------------------------|
D|----------------------------|----------------------------|
A|-----00--3-2:---------------|-----00--3-2:---------------|
E|--2-----------0--0-1-2--/8-|--2-----------0--0-1-2--/8-|

G|----------------------------|
D|----------------------------|
A|-----00--3-2:---------------|
E|--2-----------0:------------| 


Solo ( base em Estrofe )

Refrão Final

G|------------------------------------9-x---------|
D|-----------------------(7)-------9----x---------|
A|-----(2h4)----------5-5-5-6-7-7:---------7------|
E|-0-00-7-0--2-2-2--2--------------------------0:-|

G|------------------------------------9-x----------------|
D|-----------------------(7)--------9-x------------------|
A|-----(2h4)----------5-5-5-6-7-7-7-----(7h9p7)-7-(5)----|
E|-0-00-7-0--2-2-2--2---------------------------------0:-|

G|------------------------------------9-x---------|
D|-----------------------(7)-------9----x---------|
A|-----(2h4)----------5-5-5-6-7-7----------7------|
E|-0-00-7-0--2-2-2--2--------------------------0:-|

G|------------------------------------------|
D|------------------------------------------|
A|-----(2h4)----------5-5-5-5-5-5-----------|
E|-0-00-7-0--2-2-2--2--------------5---0:--|

G|------------------------------------9-x---------|
D|-----------------------(7)-------9----x---------|
A|-----(2h4)----------5-5-5-6-7-7:---------7------|
E|-0-00-7-0--2-2-2--2--------------------------0:-|

G|------------------------------------9-x----------------|
D|-----------------------(7)--------9-x------------------|
A|-----(2h4)----------5-5-5-6-7-7-7-----(7h9p7)-7-(5)----|
E|-0-00-7-0--2-2-2--2---------------------------------0:-|

G|------------------------------------9-x---------|
D|-----------------------(7)-------9----x---------|
A|-----(2h4)----------5-5-5-6-7-7----------7------|
E|-0-00-7-0--2-2-2--2--------------------------0:-|

G|-----------------------|
D|-----------------------|
A|-----(2h4)----------5:-|  
E|-0-00-7-0--2-2-2--2----| 
less
plus
Add to Songbook Print Version How to play lesson Submit videolesson
Click the best TAGS for this song:
None of them
Contributor: Diphsilv Correct

If you can not find the chords or tabs you want, look at our partner E-chords. If you are a premium member, you have total access to our video lessons.

If you find a wrong Bad To Me from 3 Doors Down, click the correct button above.

login/signup
my songbooks
my recent views
my submits