S 311

Sunset In July bass

311

Album:Universal Pulse

Year:2011

tools Ultimate Tabs

Start AutoScroll Font Size Down Font Size Up

Find us on Facebook

chords tabs
bass
ukulele keyboards
drums
flute
harmonica
guitar pro
video
Ultimate-Tabs

Sunset In July

311-Sunset in July

Intro/Verse/Solo (2x)
G|----------------------------------------------------------------|
D|----------------------------------------------------------------|
A|----------------------------------------------------------------|
E|-3--333---3--333---1--111---1--111------------------------------|

Verse (2x)

Chorus (x2)
G|---------------------------------------------------------------|
D|---------------------------------------------------------------|
A|----------------3--333-3-333--5--555-5-555---------------------|
E|--1--111-1-111------------------------------6--666-6-666-------|

Solo (1x)
Verse (2x)
Chorus (2x)

Bridge (x3)
G|--------------------------------|
D|--------------------------------|
A|-555--3~~~3333-----1-3----------|
E|-----------------------1~~~1111-|

Bridge part2 (1x)
G|----------------------------------|
D|----------------------------------|
A|-5553~~~3333-----1-1-1-1-1-1-1-1-|
E|----------------------------------|           

G|----------------------------------------------|
D|----------------------------------------------|
A|------------3~~~~~~~~-/5~~~~~~~~--------------|
E|-1~~~~~~~~---------------------6-6-6-6-6-6-66-|

chorus (x3)
solo (x2)
verse (x2)

Immediately after final verse; play then mute
G|------------------------------------------------|
D|------------------------------------------------|
A|------------------------------------------------|
E|-3----------------------------------------------|

Notation in tab:
Let ring (~)
Slide    (/)
less
plus
Add to Songbook Print Version How to play lesson Submit videolesson
Click the best TAGS for this song:
None of them
Contributor: Steastr8 Correct

If you can not find the chords or tabs you want, look at our partner E-chords. If you are a premium member, you have total access to our video lessons.

If you find a wrong Bad To Me from 311, click the correct button above.

login/signup
my songbooks
my recent views
my submits