4 Non Blondes

What's Up(versão 3) tab

4 Non Blondes

tools Ultimate Tabs

Start AutoScroll Font Size Down Font Size Up

Find us on Facebook

chords
tabs
bass
ukulele
keyboards
drums
flute
harmonica
guitar pro
video
Ultimate-Tabs

What's Up(versão 3)

RIFF I - INTRODUO 
 
_______________________________________________________________| 
           Parte 1                               |  Parte2     |  
-------------------------------------------------|-------------| 
--5-5-5-5------------------------------3---1h2---|-------------| 
----------2--2-2--------2-------2--2-2---2-----2-|--------2----| 
-----------------4--2-4---4-2-4--4---------------|0-2-0-2------|               
-------------------------------------------------|-------------| 
-------------------------------------------------|-------------| 
 
RIFF II (repete no inicio de cada verso acompanhado da base) 
 
------------------------------------------------- 
------------------------------------------------- 
2-2--------2-------2---2-----2----2---------2---- 
----4--2-4---4-2-4---4---2--4--4------0-2-0------ 
------------------------------------------------- 
------------------------------------------------- 
 
Obs.: no comeo do Refro fica mais legal se as notas forem tocadas em power chords, 
primeiro soh uma vez, a cada mudana de nota e a partir de: "and i say: hey, hey..." 
toca-se junto com a base, exatamente igual, s que em power chord tambm. 
 
Tom: G 
Intro : Base Tocar Os Acordes (A|-Bm-D|-A) + Guitarra Solo RIFF I, 
durante o segundo A que a base ir tocar  
 
(A|-Bm-D|-A) + RIFF II 
25 years of my life and still,   tryin' to to get up that great big hill of 
hope, for a destination.   
I realized quickly when I knew I should , 
that the world was made up of this brotherhood of 
man, for whatever that means. 
And so I cry sometimes, when I'm lying in bed 
just to get it all out, what's in my head, then 
I, I am feeling, a little peculiar. 
And so I wake in the morning, and I step outside 
And I take a deep breath, and I get real high, and 
I, scream from the top of my lungs, "What's going on?" 
And I say, "Hey yeah yeah hey, hey yeah yeah."  
I said, "Hey, what's going on?" 
And I say, "Hey yeah yeah hey, hey yeah yeah." 
I said, "Hey, what's going on?" 
  
And I try, oh my God, do I try, I try all the time, in this institution. 
And I pray, oh my God, do I pray, I pray every single day, 
for a revolution. 
And so I cry sometimes, when I'm lying in bed 
just to get it all out, what's in my head, then 
I, I am feeling, a little peculiar. 
And so I wake in the morning, and I step outside 
And I take a deep breath, and I get real high, and 
I, scream from the top of my lungs, "What's going on?" 
And I say, "Hey yeah yeah hey, hey yeah yeah."  
I said, "Hey, what's going on?" 
And I say, "Hey yeah yeah hey, hey yeah yeah." 
I said, "Hey, what's going on?" 
 
     (TOCAR RIFF I- somente a primeira parte) 
 
25 years of my life and still tryin' to get up that great big hill of 
hope, for a destination.  
less
plus
Add to Songbook Print Version How to play lesson Submit videolesson
Click the best TAGS for this song:
None of them
Contributor: craiLuis Correct

If you can not find the chords or tabs you want, look at our partner E-chords. If you are a premium member, you have total access to our video lessons.

If you find a wrong Bad To Me from 4 Non Blondes, click the correct button above.

login/signup
my songbooks
my recent views
my submits