tools Ultimate Tabs

Start AutoScroll Font Size Down Font Size Up

Find us on Facebook

chords
tabs
bass
ukulele keyboards
drums
flute
harmonica
guitar pro
video
Ultimate-Tabs

Amnesia

-------------------------------------------------------------------------------
                             Amnesia - 5 Seconds of Summer
-------------------------------------------------------------------------------
Tabbed by: c_laire
E-mail: [email protected]

I got this tab off this Youtube video so if you want to see someone playing it 
the link's here:
http://www.youtube.com/watch?v=E3XvH58YTak

For some people it's easier to read the tab so I just thought I'd make a tab 
for this considering I don't think there's one on here.

Enjoy!

Tuning: No Capo

The picking pattern for the introduction is 5, 3, 5, 1 (pause) 3, 1, 3 for the 
C chord and 6, 3, 6, 1 (pause) 3, 1, 3 for the G chord. It's really easy once 
you get it :)


Introduction:
    C
e|------------0------0-------------------0-------0---------------------------|
B|---------------------------------------------------------------------------|
G|-----0----------0-----0--------0-----------0-------0-----------------------|
D|---------------------------------------------------------------------------|
A|--3-----3------------------3------3----------------------------------------|
E|---------------------------------------------------------------------------|

   G
e|---------------3--------3-----------------------3------3-------------------|
B|---------------------------------------------------------------------------|
G|-------0-------------0-------0---------0------------0------0---------------|
D|---------------------------------------------------------------------------|
A|---------------------------------------------------------------------------|
E|--3--------3-----------------------3-------3-------------------------------|

Verses:
  C                                         G
e|-----------0-------------------0--------------------3----------------3-----|
B|---------------------------------------------------------------------------|
G|------0---------0---------0--------0-----------0--------0-------0-------0--|
D|---------------------------------------------------------------------------|
A|--3------------------3-----------------------------------------------------|
E|-------------------------------------------3----------------3--------------|

  Am                                   F
e|---------0----------------0--------------------1-----------------1---------|
B|---------------------------------------------------------------------------|
G|-----2--------2-------2-------2----------2----------2--------2-------2-----|
D|---------------------------------------------------------------------------|
A|--0---------------0------------------0------------------0------------------|
E|---------------------------------------------------------------------------| x3

  C                                     G
e|-----------0---------------0-------------------3---------------3-----------|
B|---------------------------------------------------------------------------|
G|------0-------0-------0---------0----------0-------0------0----------------|
D|---------------------------------------------------------------------------|
A|--3---------------3--------------------------------------------------------|
E|---------------------------------------3--------------3--------------------|

Chorus: C, G, Am, F
Strumming Pattern: D DU UD U D DU UD U (next chord)
less
plus
Add to Songbook Print Version How to play lesson Submit videolesson
Click the best TAGS for this song:
None of them
Contributor: jlenjane Correct

If you can not find the chords or tabs you want, look at our partner E-chords. If you are a premium member, you have total access to our video lessons.

If you find a wrong Bad To Me from 5 Seconds Of Summer, click the correct button above.

login/signup
my songbooks
my recent views
my submits