5 Seconds Of Summer

English Love Affair bass

5 Seconds Of Summer

tools Ultimate Tabs

Start AutoScroll Font Size Down Font Size Up

Find us on Facebook

chords
tabs
bass
ukulele keyboards
drums
flute
harmonica
guitar pro
video
Ultimate-Tabs

English Love Affair

  Intro
G|-----5-------------8---8-8---8-10---------------------------------|
D|--------------------------------------------------------------3-1-|
A|-3---------3-5-6--------------------------------------------------|
E|----------------------------------4---4-----4-3-1---1---1-1-------|
   1 + 2 + 3 + 4 + 1 + 2 + 3 + 4 +  1 + 2 + 3 + 4 + 1 + 2 + 3 + 4 +

  Verse
G|-----5-------------8---8-8---8-10---------------------------------|
D|--------------------------------------------------------------3-1-|
A|-3---------3-5-6--------------------------------------------------|
E|----------------------------------4---4-----4-3-1---1---1-1-------|
   1 + 2 + 3 + 4 + 1 + 2 + 3 + 4 +  1 + 2 + 3 + 4 + 1 + 2 + 3 + 4 +

G|-----5-------------8---8-8---8-10---------------------------------|
D|------------------------------------------------------------------|
A|-3---------3-5-6--------------------------------------------------|
E|----------------------------------4---4-----4-3-1-----------------|
   1 + 2 + 3 + 4 + 1 + 2 + 3 + 4 +  1 + 2 + 3 + 4 + 1 + 2 + 3 + 4 +

  Pre-Chorus
G|-----------------------------------------------------------------|
D|-----------------------------------------------------------------|
A|---------------------------------------------3---3---3-3---1-1-3-|
E|-4---4-----4-4-6---6---6-6---6-\-3---3---3-3---------------------|
   1 + 2 + 3 + 4 + 1 + 2 + 3 + 4 + 1 + 2 + 3 + 4 + 1 + 2 + 3 + 4 +

G|-----------------------------------------------------------------|
D|-----------------------------------------------------------------|
A|-----------------------------------------------------------------|
E|-4---4-----4-4-6---6---6-6---6-\-3-3-3-3-3-3-3-3/1515151515151515|
   1 + 2 + 3 + 4 + 1 + 2 + 3 + 4 + 1 + 2 + 3 + 4 + 1 + 2 + 3 + 4 +

  Chorus x2
G|------------------------------------------------------------------|
D|o-----------------------------------------------------------------|
A|o-3-----3-3-----3-3-----3-3---------------------------------------|
E|------------------------------6---4-----4-4-----4-4-----4-4-----4-|
    1 + 2 + 3 + 4 + 1 + 2 + 3 + 4 + 1 + 2 + 3 + 4 + 1 + 2 + 3 + 4 +

G|------------------------------------------------------------------|
D|-------------------------------------------------5---3-----------o|
A|---------------------------------------------------------6-------o|
E|-6-----6-6-----6-6-----6-6-----6-3-----3-3-----3-----------6------|
   1 + 2 + 3 + 4 + 1 + 2 + 3 + 4 + 1 + 2 + 3 + 4 + 1 + 2 + 3 + 4 +

  Intro
G|-----5-------------8---8-8---8-10---------------------------------|
D|------------------------------------------------------------------|
A|-3---------3-5-6----------------------------------------------1---|
E|----------------------------------4---4-----4-3-1-----------------|
   1 + 2 + 3 + 4 + 1 + 2 + 3 + 4 +  1 + 2 + 3 + 4 + 1 + 2 + 3 + 4 +

  Verse
G|-----5-------------8---8-8---8-10---------------------------------|
D|--------------------------------------------------------------3-1-|
A|-3---------3-5-6--------------------------------------------------|
E|----------------------------------4---4-----4-3-1---1---1-1-------|
   1 + 2 + 3 + 4 + 1 + 2 + 3 + 4 +  1 + 2 + 3 + 4 + 1 + 2 + 3 + 4 +

G|-----5-------------8---8-8---8-10---------------------------------|
D|------------------------------------------------------------------|
A|-3---------3-5-6--------------------------------------------------|
E|----------------------------------4---4-----4-3-1-----------------|
   1 + 2 + 3 + 4 + 1 + 2 + 3 + 4 +  1 + 2 + 3 + 4 + 1 + 2 + 3 + 4 +

  Pre-Chorus
G|-----------------------------------------------------------------|
D|-----------------------------------------------------------------|
A|---------------------------------------------3---3---3-3---1-1-3-|
E|-4---4-----4-4-6---6---6-6---6-\-3---3---3-3---------------------|
   1 + 2 + 3 + 4 + 1 + 2 + 3 + 4 + 1 + 2 + 3 + 4 + 1 + 2 + 3 + 4 +

G|-----------------------------------------------------------------|
D|-----------------------------------------------------------------|
A|-----------------------------------------------------------------|
E|-4---4-----4-4-6---6---6-6---6-\-3-3-3-3-3-3-3-3/1515151515151515|
   1 + 2 + 3 + 4 + 1 + 2 + 3 + 4 + 1 + 2 + 3 + 4 + 1 + 2 + 3 + 4 +

  Chorus x2
G|------------------------------------------------------------------|
D|o-----------------------------------------------------------------|
A|o-3-----3-3-----3-3-----3-3---------------------------------------|
E|------------------------------6---4-----4-4-----4-4-----4-4-----4-|
    1 + 2 + 3 + 4 + 1 + 2 + 3 + 4 + 1 + 2 + 3 + 4 + 1 + 2 + 3 + 4 +

G|------------------------------------------------------------------|
D|-------------------------------------------------5---3-----------o|
A|---------------------------------------------------------6-------o|
E|-6-----6-6-----6-6-----6-6-----6-3-----3-3-----3-----------6------|
   1 + 2 + 3 + 4 + 1 + 2 + 3 + 4 + 1 + 2 + 3 + 4 + 1 + 2 + 3 + 4 +

G|-----5-------------8---8-8---8-10---------------------------------|
D|------------------------------------------------------------------|
A|-3---------3-5-6--------------------------------------------------|
E|----------------------------------4---4-----4-3-1-1-1-1-1-1-1-1-1-|
   1 + 2 + 3 + 4 + 1 + 2 + 3 + 4 +  1 + 2 + 3 + 4 + 1 + 2 + 3 + 4 +

  Bridge
G|-----------------------------------------------------------------|
D|-----------------------------------------------------------------|
A|---------------------------------3-3---3-3-------1-1---1-1-------|
E|-4-4---4-4---------------------3---------------------------------|
   1 + 2 + 3 + 4 + 1 + 2 + 3 + 4 + 1 + 2 + 3 + 4 + 1 + 2 + 3 + 4 +

G|-----------------------------------------------------------------|
D|-----------------------------------------------------------------|
A|-----------------------------------------------------------------|
E|-4-4---4-4-----------------------1-1---1-1-------3-3---3-3-------|
   1 + 2 + 3 + 4 + 1 + 2 + 3 + 4 + 1 + 2 + 3 + 4 + 1 + 2 + 3 + 4 +

  Chorus
G|-----------------------------------------------------------------|
D|-----------------------------------------------------------------|
A|-----------------------------------------------------------------|
E|-----------------------------------------------------------------|
   1 + 2 + 3 + 4 + 1 + 2 + 3 + 4 + 1 + 2 + 3 + 4 + 1 + 2 + 3 + 4 +

G|-----------------------------------------------------------------|
D|-------------------------------------------------5---3-----------|
A|---------------------------------------------------------6-------|
E|-4-----4-4-----4-4-----4-4-----4-3-----3-3-----3-----------6-----|
   1 + 2 + 3 + 4 + 1 + 2 + 3 + 4 + 1 + 2 + 3 + 4 + 1 + 2 + 3 + 4 +

G|------------------------------------------------------------------|
D|o-----------------------------------------------------------------|
A|o-3-----3-3-----3-3-----3-3---------------------------------------|
E|------------------------------6---4-----4-4-----4-4-----4-4-----4-|
    1 + 2 + 3 + 4 + 1 + 2 + 3 + 4 + 1 + 2 + 3 + 4 + 1 + 2 + 3 + 4 +

G|------------------------------------------------------------------|
D|-------------------------------------------------5---3-----------o|
A|---------------------------------------------------------6-------o|
E|-6-----6-6-----6-6-----6-6-----6-3-----3-3-----3-----------6------|
   1 + 2 + 3 + 4 + 1 + 2 + 3 + 4 + 1 + 2 + 3 + 4 + 1 + 2 + 3 + 4 +

  Outro
G|-----5-------------8---8-8---8-10---------------------------------|
D|------------------------------------------------------------------|
A|-3---------3-5-6----------------------------------------1-----3---|
E|----------------------------------4---4-----4-3-1---3-----3-------|
   1 + 2 + 3 + 4 + 1 + 2 + 3 + 4 +  1 + 2 + 3 + 4 + 1 + 2 + 3 + 4 +

G|-----5-------------8---8-8---8-10-------------------|
D|----------------------------------6---6-----6-5-----|
A|-3---------3-5-6--------------------------------8-6-|
E|----------------------------------------------------|
   1 + 2 + 3 + 4 + 1 + 2 + 3 + 4 +  1 + 2 + 3 + 4 +

G|---------------------------------|
D|-5---3---------------------------|
A|---------6-----------------------|
E|-----------6-----8-\-------------|
   1 + 2 + 3 + 4 + 1 + 2 + 3 + 4 +

Tabbed By Jack Mills
less
plus
Add to Songbook Print Version How to play lesson Submit videolesson
Click the best TAGS for this song:
None of them
Contributor: madijaso Correct

If you can not find the chords or tabs you want, look at our partner E-chords. If you are a premium member, you have total access to our video lessons.

If you find a wrong Bad To Me from 5 Seconds Of Summer, click the correct button above.

login/signup
my songbooks
my recent views
my submits