tools Ultimate Tabs

Start AutoScroll Font Size Down Font Size Up

Find us on Facebook

chords
tabs
bass
ukulele
keyboards
drums
flute
harmonica
guitar pro
video
Ultimate-Tabs

Degenerates

Intro
D|---------------------------------------------------------------------------|
A|---------------------------------------------------------------------------|
F|---------------------------------------------------------------------------|
C|---3-3-3---3-3-3-3---3-3----------------0-0-0---0-0-0-0---0-0--------------| play twice
G|---3-3-3---3-3-3-3---3-3----------------0-0-0---0-0-0-0---0-0--------------|
C|---3-3-3---3-3-3-3---3-3----/7--7--7----0-0-0---0-0-0-0---0-0---7/8--8--8--|


Verse 1
D|---------------------------------------------------------------------------|
A|---------------------------------------------------------------------------|
F|---------------------------------------------------------------------------|
C|---3-3-3---3-3-3-3---3-3----------------0-0-0---0-0-0-0---0-0--------------| palm muted
G|---3-3-3---3-3-3-3---3-3----------------0-0-0---0-0-0-0---0-0--------------|
C|---3-3-3---3-3-3-3---3-3----/7--7--7----0-0-0---0-0-0-0---0-0---7/8--8--8--|


Chorus
D|---------------------------------------------------------------------------|
A|---------------------------------------------------------------------------|
F|-------14---------17---14---------14--------------14-----------------------|
C|---15------15------------------15----15-------15------15-------------------|
G|---------------------------------------------------------------------------|
C|---------------------------------------------------------------------------|

D|---------------------------------------------------------------------------|
A|---------------------------------------------------------------------------|
F|-------14------------------------12--------------12------------------------| play twice
C|---15------15-----17---15-----15----15-------15------15--------------------|
G|---------------------------------------------------------------------------|
C|---------------------------------------------------------------------------|


Verse 2
D|---------------------------------------------------------------------------|
A|---------------------------------------------------------------------------|
F|---------------------------------------------------------------------------|
C|---3-3-3---3-3-3-3---3-3----------------0-0-0---0-0-0-0---0-0--------------| palm muted
G|---3-3-3---3-3-3-3---3-3----------------0-0-0---0-0-0-0---0-0--------------|
C|---3-3-3---3-3-3-3---3-3----/7--7--7----0-0-0---0-0-0-0---0-0---7/8--8--8--|


PreBridge
D|---------------------------------------------------------------------------|
A|---------------------------------------------------------------------------|
F|--------------------------10---------10--------9h10------------------------|
C|---7-7-7----7-7-7-7---7--------7----------7--------------------------------|
G|---------------------------------------------------------------------------|
C|---------------------------------------------------------------------------|

D|---------------------------------------------------------------------------|
A|---------------------------------------------------------------------------|
F|---------------------------------------------------------------------------| play 4 times
C|---7-7-7----7-7-7-7---7-----5-5-5----5-5-5-5---5/7----7--7-----------------|
G|---------------------------------------------------------------------------|
C|---------------------------------------------------------------------------|


Bridge
D|---------------------------------------------------------------------------|
A|---------------------------------------------------------------------------|
F|---------------------------------------------------------------------------|
C|-------------------------------3---------3----2h3--------------------------|
G|---------------------------------------------------------------------------|
C|---3-3-3---3-3-3-3---3-3----3-----3--------3-------------------------------|

D|---------------------------------------------------------------------------|
A|---------------------------------------------------------------------------|
F|---------------------------------------------------------------------------|
C|---------------------------------------------------------------------------|
G|----------------------------1-1-1-1---1----1----1-0-0-0-0---0----0---------|
C|---3-3-3---3-3-3-3---3-3---------------------------------------------------|

D|---------------------------------------------------------------------------|
A|---------------------------------------------------------------------------|
F|---------------------------------------------------------------------------|
C|-------------------------------3---------3----2h3--------------------------|
G|---------------------------------------------------------------------------|
C|---3-3-3---3-3-3-3---3-3----3-----3--------3-------------------------------|

D|---------------------------------------------------------------------------|
A|---------------------------------------------------------------------------|
F|---------------------------------------------------------------------------|
C|---------------------------------------------------------------------------|
G|----------------------------1-1-1-1---1----1----1-3-3-3-3----3-----3-------|
C|---3-3-3---3-3-3-3---3-3---------------------------------------------------|

Chorus
D|---------------------------------------------------------------------------|
A|---------------------------------------------------------------------------|
F|---------------------------------------------------------------------------|
C|-------------------------\-\------0-0-0---0-0-0-0---0-0--------------------|
G|-------------------------\-\------0-0-0---0-0-0-0---0-0--------------------|
C|-------------------------\-\------0-0-0---0-0-0-0---0-0---7/8--8--8--------|

D|---------------------------------------------------------------------------|
A|---------------------------------------------------------------------------|
F|---------------------------------------------------------------------------|
C|---3-3-3---3-3-3-3---3-3----------------0-0-0---0-0-0-0---0-0--------------| 
G|---3-3-3---3-3-3-3---3-3----------------0-0-0---0-0-0-0---0-0--------------|
C|---3-3-3---3-3-3-3---3-3----/7--7--7----0-0-0---0-0-0-0---0-0---7/8--8--8--|

D|---------------------------------------------------------------------------|
A|---------------------------------------------------------------------------|
F|-------14---------17---14---------14--------------14-----------------------|
C|---15------15------------------15----15-------15------15-------------------|
G|---------------------------------------------------------------------------|
C|---------------------------------------------------------------------------|

D|---------------------------------------------------------------------------|
A|---------------------------------------------------------------------------|
F|-------14------------------------12--------------12------------------------| 
C|---15------15-----17---15-----15----15-------15------15--------------------|
G|---------------------------------------------------------------------------|
C|---------------------------------------------------------------------------|


************************************

| x   Dead note
| g   Grace note
| (n) Ghost note
| h   Hammer-on
| p   Pull-off
| r   Release
| >   Accented note
| t   Tapping
| b   Bend
| br  Bend release
| pb  Pre-bend
| pbr Pre-bend release
| /   Slide up
| \   Slide down
| ~   Vibrato
| s   Slap
| P   Pop
| PM  Palm mute
| TR  Trill
| N   Tremolo

************************************
less
plus
Add to Songbook Print Version How to play lesson Submit videolesson
Click the best TAGS for this song:
None of them
Contributor: Anonymous Correct

If you can not find the chords or tabs you want, look at our partner E-chords. If you are a premium member, you have total access to our video lessons.

If you find a wrong Bad To Me from A Day to Remember, click the correct button above.

login/signup
my songbooks
my recent views
my submits