A Global Threat

Everything Is Wonderful tab

A Global Threat

tools Ultimate Tabs

Start AutoScroll Font Size Down Font Size Up

Find us on Facebook

chords
tabs
bass
ukulele
keyboards
drums
flute
harmonica
guitar pro
video
Ultimate-Tabs

Everything Is Wonderful

Chorus 
 
|-----------------------------------------------------| 
|----------8-8-8-8-----------6-6-6-6---------8-8-8-8--| 
|-3-3-3-3--8-8-8-8--6-6-6-6--6-6-6-6--6-6-6--8-8-8-8--| 
|-3-3-3-3--6-6-6-6--6-6-6-6--4-4-4-4--6-6-6--6-6-6-6--| 
|-1-1-1-1--6-6-6-6--4-4-4-4-----------4-4-4--6-6-6-6--| 
 
    

Verse 
 
|------------------------------------------------------------------| 
|------------------------------------------------------------------| 
|----------3-3-3-3-----------6-6-6-6-------------------------------| 
|-3-x-x-x--3-3-3-3--3-x-x-x--6-6-6-6--4-4-4-4--6-6-6-6--3-3-3-3----| 
|-3-x-x-x--1-1-1-1--3-x-x-x--4-4-4-4--4-4-4-4--6-6-6-6--3-3-3-3----| 
|-1-x-x-x-----------1-x-x-x-----------2-2-2-2--4-4-4-4--1-1-1-1----| 
 


Verse II 
 
|--------------------------------------| 
|--------------------------------------| 
|----------3-3-3-3-----------6-6-6-6---| 
|-3-x-x-x--3-3-3-3--3-x-x-x--6-6-6-6---| 
|-3-x-x-x--1-1-1-1--3-x-x-x--4-4-4-4---| 
|-1-x-x-x-----------1-x-x-x------------| 
 

(Verse II continued) 
 
|-------------------------------| 
|-------------------------------| 
|-------------------------------| 
|-------------------------------|  X2 (On the second time do A sharp 8 times) 
|-6-6-6-6--9-9-9-9--8-8-8-8-----| 
|-4-4-4-4--7-7-7-7--6-6-6-6-----| 
 



Solo 


|------------------------------------------| 
|------------------------------------------| 
|------------10--8-8-----------------------|   
|----8-10-------------10-11-10-8----10--8-8| 
|-11------8----------------------11--------| 
|------------------------------------------| 
  
less
plus
Add to Songbook Print Version How to play lesson Submit videolesson
Click the best TAGS for this song:
None of them
Contributor: SC43lazy Correct

If you can not find the chords or tabs you want, look at our partner E-chords. If you are a premium member, you have total access to our video lessons.

If you find a wrong Bad To Me from A Global Threat, click the correct button above.

login/signup
my songbooks
my recent views
my submits