tools Ultimate Tabs

Start AutoScroll Font Size Down Font Size Up

Find us on Facebook

chords
tabs
bass
ukulele
keyboards
drums
flute
harmonica
guitar pro
video
Ultimate-Tabs

Live For Now



Intro 
 
|----------------------------------------------| 
|-9-9-10-10-12-12-10--9-9-10-10-12-12-10-10----| 
|-9-9-9--9--9--9--9---9-9-9--9--9--9--9--9-----| 
|----------------------------------------------| 
|----------------------------------------------| 
|----------------------------------------------| 
 

 
|-------------------------------------------| 
|-5-5-6-6-8-8-6-6--7-7-8-8-10-10-8-8--------| 
|-5-5-5-5-5-5-5-5--7-7-7-7-7--7--7-7--------| 
|-------------------------------------------| 
|-------------------------------------------| 
|-------------------------------------------| 
 




Verse 
 
|-------------------------------------------------------------| 
|-------------------------------------------------------------| 
|-9--9-9-9-9-9-9-9-9-9-9-9-9----------------------------------| 
|-9--9-9-9-9-9-9-9-9-9-9-9-9---9------------------------------| 
|-7--7-7-7-7-7-7-7-7-7-7-7-7---9-10-10-10-10--12-12-12-12-----| 
|------------------------------7--8--8--8--8--10-10-10-10-----| 
 
     P.M******************** 

Chorus 
 
|---------------------------------------------| 
|---------------------------------------------| 
|-4-4-4-4-5-5-5-5---12-12-12-12---------------| 
|-4-4-4-4-5-5-5-5----x--x--x--x--12-12-12-12--| 
|-2-2-2-2-3-3-3-3---10-10-10-10---x--x--x--x--| 
|--------------------------------10-10-10-10--| 
 



Bridge 
|---| 
|---| 
|-4-| 
|-4-| 
|-2-| 
|---| 


Solo 

 
|-------------------------------------------------| 
|-------------9-7-9-7-----------------------------| 
|-9b-9b-9b-9b---------8--8--8--10-10-12-10-10-10--| 
|-------------------------------------------------| 
|-------------------------------------------------| 
|-------------------------------------------------| 
 

 
|------------------------------------------| 
|-------------9-8-9-8--11-11-11-12b-11-----| 
|-9b-9b-9b-9b------------------------------| 
|------------------------------------------| 
|------------------------------------------| 
|------------------------------------------| 
 

  
less
plus
Add to Songbook Print Version How to play lesson Submit videolesson
Click the best TAGS for this song:
None of them
Contributor: isatalfi Correct

If you can not find the chords or tabs you want, look at our partner E-chords. If you are a premium member, you have total access to our video lessons.

If you find a wrong Bad To Me from A Global Threat, click the correct button above.

login/signup
my songbooks
my recent views
my submits