A Pale Horse Named Death

To Die In Your Arms tab

A Pale Horse Named Death

tools Ultimate Tabs

Start AutoScroll Font Size Down Font Size Up

Find us on Facebook

chords
tabs
bass
ukulele
keyboards
drums
flute
harmonica
guitar pro
video
Ultimate-Tabs

To Die In Your Arms

Tune your guitar to C#. That's: C# - F# - B - E - G# - C#

/ = slide up
\ = slide down
. = palm mute

intro:

|-----------------------------------------|
|-----------------------------------------|
|--------9-9-9-10-10-10-7-7-7-10-10-10-10-|
|--7-7-7----------------------------------|
|-----------------------------------------|
|-----------------------------------------|


part 1:

|--------------------------------------------------------------------|
|--------------------------------------------------------------------|
|--------------------------------------------------------------------|
|--7--7\-5--5/-8--8\-7--7\-5/-7--7--7\-5--5/-8\-7--7\-6--6\-5--5\-4/-|
|--7--7\-5--5/-8--8\-7--7\-5/-7--7--7\-5--5/-8\-7--7\-6--6\-5--5\-4/-|
|--5--5\-3--3/-6--6\-5--5\-3/-5--5--5\-3--3/-6\-5--5\-4--4\-3--3\-2/-| start again


part 2a: (there's nothin' more..)

|--------------------------------------------------------------------------------------------|
|--------------------------------------------------------------------------------------------|
|-----------------------5--------------------------------------------------------------------|
|--7--7--7--7--7--2--2--5--6--6--6--6--6--5--5--5--7--7--7--7--7--2--2--2--6--6--6--6--6--6--|
|--7--7--7--7--7--2--2--3--6--6--6--6--6--5--5--5--7--7--7--7--7--2--2--2--6--6--6--6--6--6--|
|--5--5--5--5--5--0--0-----4--4--4--4--4--3--3--3--5--5--5--5--5--0--0--0--4--4--4--4--4--4--|
PM .  .  .  .  .  .  .     .  .  .  .  .  .  .  .  .  .  .  .  .  .  .  .  .  .  .  .  .  .


part 2b:

|------------------------------------------------------------------------------------------------------------|
|------------------------------------------------------------------------------------------------------------|
|-----------------------5------------------------------------------------------------------------------------|
|--7--7--7--7--7--2--2--5--6--6--6--6--6--5--5--5--7--7--7--7--7--2--2--2--6--6--6--6--6--6/-7/-8\-7\-6/-8\--|
|--7--7--7--7--7--2--2--3--6--6--6--6--6--5--5--5--7--7--7--7--7--2--2--2--6--6--6--6--6--6/-7/-8\-7\-6/-8\--|
|--5--5--5--5--5--0--0-----4--4--4--4--4--3--3--3--5--5--5--5--5--0--0--0--4--4--4--4--4--4/-5/-6\-5\-4/-6\--|
PM .  .  .  .  .  .  .     .  .  .  .  .  .  .  .  .  .  .  .  .  .  .  .  .  .  .  .  .


part 3: (feel so..)

|-------------------------------------------------------------------|
|-------------------------------------------------------------------|
|--------------------------------------------------------------8--8-|
|--5/-7--7--5/-8--8--5/-7--7--8--8--5/-7--7--5/-8--8--5/-7--7--8--8-|
|--5/-7--7--5/-8--8--5/-7--7--8--8--5/-7--7--5/-8--8--5/-7--7--6--6-|
|--3/-5--5--3/-6--6--3/-5--5--6--6--3/-5--5--3/-6--6--3/-5--5-------|


I do not own the rights of this song - it's for entertainment purposes only!

Please rate and have fun playing APHND!
less
plus
Add to Songbook Print Version How to play lesson Submit videolesson
Click the best TAGS for this song:
None of them
Contributor: ansidomi Correct

If you can not find the chords or tabs you want, look at our partner E-chords. If you are a premium member, you have total access to our video lessons.

If you find a wrong Bad To Me from A Pale Horse Named Death, click the correct button above.

login/signup
my songbooks
my recent views
my submits