S ABBA

Estoy soņando tab

ABBA

tools Ultimate Tabs

Start AutoScroll Font Size Down Font Size Up

Find us on Facebook

chords
tabs
bass
ukulele keyboards
drums
flute
harmonica
guitar pro
video
Ultimate-Tabs

Estoy soņando

INTRO 
 
  A4                   E               A 
E------------------------0---0---0-------0---0--------- 
B---333333332200---------0---0---0-------2---2--------- 
G---------------2211-----1---1---1--1122-2---2--------- 
D-------------------4422-2---2---2-2-----2---2--------- 
A-0----------------------2---2---2-------0-0-0-0------- 
E------------------------0-0-0-0-0--------------------- 
 
  A4                   E         E7      A 
E------------------------0-------0-------0---0--------- 
B---333333332200---------0-------0----22-2---2--------- 
G---------------2211-----1----11-1-122---2---2--------- 
D-------------------4422-2-244---2-------2---2--------- 
A-0----------------------2-------2-------0-0-0--------- 
E------------------------0-------0--------------------- 
 
        E           A 
Yo lo soņé y el corazķn 
             E          A 
Me hablķ de amor con emociķn  
            E                        A 
Si vives la magia de hadas que hacen bien 
               E              A 
Verás que el futuro sonríe también  
            E 
Creo en angelitos 
 
* 
E-0-2-4-5-4-0---------------- 
B---------------------------- 
G---------------------------- 
D---------------------------- 
A---------------------------- 
E---------------------------- 
              D            A 
Que me cuidan siempre de caer 
            E     Repeat * 
Creo en angelitos 
            D              A 
Que la vida linda me hacen ver 
       E           A 
Y llegaré, yo lo soņé  
 
Yo lo soņé, no fue ilusiķn 
Y me ayudķ en mi aflicciķn  
Y la fantasía a la oscuridad 
La transforma en día, en una verdad  
Creo en angelitos que me cuidan siempre de caer 
Creo en angelitos que la vida linda me hacen ver 
Y llegaré, yo lo soņé 
                   Intro 
Y llegaré, yo lo soņé 
 
Yo lo soņé y el corazķn... 
 
Final: 
 
  A4                   E               A 
E------------------------0-------0---0------- 
B---333333332200---------0-32202-2---2------- 
G---------------2211-----1-------2---2------- 
D-------------------4422-2-------2---2------- 
A-0----------------------2-------0-0-0------- 
E------------------------0------------------- 
 
Repeat several times 
 
 
less
plus
Add to Songbook Print Version How to play lesson Submit videolesson
Click the best TAGS for this song:
None of them
Contributor: infaMarc Correct

If you can not find the chords or tabs you want, look at our partner E-chords. If you are a premium member, you have total access to our video lessons.

If you find a wrong Bad To Me from ABBA, click the correct button above.

login/signup
my songbooks
my recent views
my submits