ABBA

Just Like That tab

ABBA

tools Ultimate Tabs

Start AutoScroll Font Size Down Font Size Up

Find us on Facebook

chords
tabs
bass
ukulele
keyboards
drums
flute
harmonica
guitar pro video
Ultimate-Tabs

Just Like That

(guitar) 

     E  T T T E  T T T T E  T T T T E  T T T T T 
 
E|----------------------------------------------| 
B|-----3---3------3---3------2---2------2---2---| 
G|-----2----------2---2------2---2----------2---| 
D|---------2----------------------------2-------| 
A|----------------------------------------------| 
E|----------------------------------------------| 
 

  E  T T T E  T T T T E  T T T T E  T T T T T 
 
-----0---0------0---0-------------------------| 
-----0---0----------0------3---3------3---3---| 
-------------------------------4------4-------| 
----------------4----------4--------------4---| 
----------------------------------------------| 
----------------------------------------------| 
 

  E  T T T E  T T T T E  T T T T E  T T T T T 
 
-----0---0------0---0------0---0------0-------| 
-----0---0------0---0------0----------0---0---| 
------------------------------------------4---| 
-------------------------------4--------------| 
----------------------------------------------| 
----------------------------------------------| 
 

  E  T T T E  T T T T E  T T T T E  T T T T T 
 
-----0---0------0-----------------------------| 
-----3--------------2----------3------3---3---| 
---------2------1---4------2---2--------------| 
---------------------------7----------2---2---| 
----------------------------------------------| 
----------------------------------------------| 
 

  E  T T T E  T T T T E  T T T T E  T T T T T 
 
-------------------------------0----------0---| 
-----2---2------2---2------0---0------0---0---| 
---------2----------2------4----------4-------| 
-----2----------2-----------------------------| 
----------------------------------------------| 
----------------------------------------------| 
 

  E  T T T E  T T T T E  T T T E.  T T T T 
 
---------------------------------------0---| 
-----3---3------3---0----0---0-----0---0---| 
-----4---4----------2----4---4-----4-------| 
----------------4--------------------------| 
-------------------------------------------| 
-------------------------------------------| 
 

  E  T T T E  T T T T E  T T T T E  T T T T T 
 
-----0---0----------0-------------------------| 
-----0---0------0---0------3---3----------3---| 
----------------4----------2---2------2-------| 
--------------------------------------7---2---| 
----------------------------------------------| 
----------------------------------------------| 
 

  E  T T T E  T T T T E  T T S T E  T T T T 
 
--------------------------------------------| 
-----3---3------3---3----------3----3---3---| 
-----2----------2---2------2----------2-----| 
---------2-----------------7---2--------2---| 
--------------------------------------------| 
--------------------------------------------| 
 

  E  T T T E  T T T T E  T T T T E  T T T T T 
 
----------------------------------------------| 
-----3----------3---3------3----------3-------| 
-----2---2------2---2----------2------2---2---| 
---------7-----------------2---7----------7---| 
----------------------------------------------| 
----------------------------------------------| 
 

  E  T T T E  T T T T E  T T T T E  T T T T T 
 
----------------------------------------------| 
-----3---3----------3------3---3------3-------| 
---------2------2---2------2---2------2---2---| 
-----2----------7-------------------------7---| 
----------------------------------------------| 
----------------------------------------------| 
 

  E  T T T E  T T T T E.  T T T E  T T T T 
 
-------------------------------------------| 
-----3----------3--------------------------| 
-----2---2------2---2-----2---2------2---2-| 
---------7----------7-----7---7------7---7-| 
-------------------------------------------| 
-------------------------------------------| 
 

  E  T T T E  T T T T E  T T T T E  T T T T T 
 
----------------------------------------------| 
-----2----------2----------3---0------3---3---| 
-----2---2------2---2------4---2------4-------| 
---------6----------6---------------------4---| 
----------------------------------------------| 
----------------------------------------------| 
 

  E  T T T E  T T T T E  T T T T E  T T T T T 
 
---------------------------0---0------0---0---| 
-----3---3------3---3----------0----------0---| 
---------4------4-----------------------------| 
-----4--------------4------4----------4-------| 
----------------------------------------------| 
----------------------------------------------| 
 

  E  T T S E  T T T E  T T T T E  T T T T T 
 
-----0--------0----------0---0------0---0---| 
-----0---0----0---0---------------------2---| 
---------4--------4------1---1------1-------| 
--------------------------------------------| 
--------------------------------------------| 
--------------------------------------------| 
 

  E  T T T E  T T T T E  T T T T E  T T T S 
 
-----0---0------0---0------0---0------0---0-| 
-----2---2----------2----------0------0---0-| 
----------------1---------------------------| 
---------------------------4----------------| 
--------------------------------------------| 
--------------------------------------------| 
 

  E  T T T E  T T T T E  T T T T E  T T T T T 
 
-----0----------0---0------0----------0-------| 
---------0------0---0------2---0------2---0---| 
---------4---------------------6----------6---| 
-----4----------------------------------------| 
----------------------------------------------| 
----------------------------------------------| 
 

 E  T T T E  T T T T E  T T T T E  T T T T T 
 
-----0---0------0----------0----------0---0---| 
-----2---2----------0------0---0------0---0---| 
----------------1---6----------4--------------| 
----------------------------------------------| 
----------------------------------------------| 
----------------------------------------------| 
 

  E  T T T E  T T T S E  T T T E  T T T T T 
 
-----0---0----------0----0----------0-------| 
-----0---0------0---0--------0----------0---| 
----------------4--------1---6------1---6---| 
--------------------------------------------| 
--------------------------------------------| 
--------------------------------------------| 
 

  E  T T T E  T T T T E  T T T S E  T T T T 
 
---------0------0---0------2---0----0---0---| 
-----0---------------------0---7----7---7---| 
-----6---6------6-6-------------------------| 
--------------------------------------------| 
--------------------------------------------| 
--------------------------------------------| 
 

  E  T T T Q.     T T T S E  T T T T 
 
---------2---------------------------| 
-----3---3----------0---3----3---3---| 
-----6--------------2---4----4---4---| 
-------------------------------------| 
-------------------------------------| 
-------------------------------------| 
 

  E  T T T E  T T T T E  T T T S E  T T S 
 
------------------------------------------| 
-----3---0------3---3------3---3----3---0-| 
-----4---2----------4-------------------2-| 
----------------4----------4---4----4-----| 
------------------------------------------| 
------------------------------------------| 
 

  E  T T T E  T T T S E  T T T E  T T T T T 
 
--------------------------------------------| 
-----3---3------0---3----3---3------3---3---| 
----------------2---4----4---4----------4---| 
-----4---4--------------------------4-------| 
--------------------------------------------| 
--------------------------------------------| 
 

  E  T T S E  T T S E  T T S E  T T T T 
 
----------------------------------------| 
-----3---3----3---3----2---0----2---2---| 
-----------------------4---1----3---3---| 
-----4---4----4---4---------------------| 
----------------------------------------| 
----------------------------------------| 
 

  E  T T T E  T T T T E  T T T S E  T T T T 
 
---------------------------0---0----0-------| 
-----3---3------3---3------0---0----0---0---| 
-----4---4------4---4-------------------4---| 
--------------------------------------------| 
--------------------------------------------| 
--------------------------------------------| 
 

  E  T T T E  T T T S E  T T S E  T T T T 
 
-----0---0------0-------------------------| 
---------0----------0----0---3----0---3---| 
--------------------4----2---4----2---4---| 
-----4----------4-------------------------| 
------------------------------------------| 
------------------------------------------| 
 

  E  T T T E  T T T T E  T T T S E  T T T T 
 
---------------------------0---0----0-------| 
-----3---3------0---3------0---0----0---0---| 
-----4----------2-----------------------4---| 
---------4----------4-----------------------| 
--------------------------------------------| 
--------------------------------------------| 
 

  E  T T T E  T T T T E  T T T T E  T T T T T 
 
---------0------0----------0----------0-------| 
-----0----------0---0------3---3------3---3---| 
-----4--------------4----------4----------4---| 
---------4------------------------------------| 
----------------------------------------------| 
----------------------------------------------| 
 

  E  T T T E  T T T T E.  T T T E  T T T T 
 
-----0---0------0---0-----0---0------0-----| 
---------3------3---3-----2----------2---2-| 
-----2------------------------1----------4-| 
-------------------------------------------| 
-------------------------------------------| 
-------------------------------------------| 
 

  E  T T T E  T T T T E  T T T T E  T T T T T 
 
-----0---0------0---0----------2------2---2---| 
---------2------2---2------3----------3---3---| 
-----1---------------------2---3--------------| 
---------------------------7---2--------------| 
--------------------------------------3---3---| 
----------------------------------------------| 
 

  E  T T T E  T T T S E  T T S E  T T T T 
 
-----2---2---------------3---3--------3---| 
-----2---2------2---2----3--------3---3---| 
----------------2---2----4---2----7---4---| 
----------------2---2--------5----5-------| 
-----3---3--------------------------------| 
------------------------------------------| 
 

  E  T T T E  T T T T E  T  T T T E  T T T T T 
 
-----3---3------3---3-----------3------0---3---| 
-----3---3------3---3-------0----------0---0---| 
-----4----------------------7---5------3---0---| 
---------0------0---0------10---4--------------| 
-----------------------------------------------| 
-----------------------------------------------| 
 

  E  T T T E  T T T T E  T T T T E  T T T T T 
 
--------------------0----------0------0---0---| 
-----2---1------2---2------0--------------2---| 
-----4---2------2---2------2---2------2---2---| 
-----3---6------5----------7---2------2-------| 
----------------------------------------------| 
----------------------------------------------| 
 

  E  T T T E  T T T T E  T T T T E  T T T T T 
 
-----2---2--------2-2----------2----------2---| 
-----3---3------3----------3----------3---3---| 
--------------------2------2---2------6---2---| 
----------------2---3------2----------3-------| 
-----3---3---------------------3--------------| 
----------------------------------------------| 
 

  E  T T T E  T T T S E  T T  T E  T T T T T 
 
-----2--------------2------3-----------3-3---| 
-----2---2------2--------0----0------0---5---| 
---------2------2---1----4----7------4---4---| 
---------7------2---3--------10--------------| 
-----3---------------------------------------| 
---------------------------------------------| 
 

  E  T T S E  T T T E  T T T T E  T T T T T 
 
---------3---------------3---0--------------| 
-----0---3----3---3------0---0------0---0---| 
-----7---4----7---3------0---3------8---4---| 
-----8--------5---4-----------------9---8---| 
--------------------------------------------| 
--------------------------------------------| 
 

  E  T T T E  T T T T E  T T T T E  T T T T T 
 
----------------0---0------0----------0-------| 
-----0---2----------2----------2----------2---| 
-----2---5------2----------1---2------2---4---| 
-----7---2------2----------3---5------2---3---| 
--------------------3-------------------------| 
----------------------------------------------| 
 

  E  T T T E  T T T S E  T T T E  T T T T T 
 
-----2---2----------2--------2----------2---| 
----------------3--------3----------3-------| 
-----2---2------2---2----2---3------2---2---| 
-----3---3------2--------7---2------7---3---| 
--------------------3-----------------------| 
--------------------------------------------| 
 

  E  T T T E  T T T T E  T T T T E  T T T S 
 
-------2-2----------2----------2------2-----| 
----------------3---3------2----------1---1-| 
-----2---2------2----------5---1------2---2-| 
-----7---3------2--------------2----------7-| 
--------------------3------3----------------| 
--------------------------------------------| 
 

  E  T T T E  T T T T E  T T T T E  T T T  T T 
 
---------3------3---3--------------------------| 
-----0---3------3----------2---2------3--------| 
-----7--------------3------3---3------3----3---| 
-----8---0------0---4------7---7------6----7---| 
------------------------------------------11---| 
-----------------------------------------------| 
 

  E  T T T E  T T T T E  T T T T E  T T T T T 
 
-------------------------------3--------------| 
-----7---7------7---7------4---3------3---3---| 
-----0---7------7---0------7---4------7---4---| 
-----7---9------9---7------4----------5---3---| 
----------------------------------------------| 
----------------------------------------------| 
 

  E  T T T E  T T T T E  T T T T E  T T T T T 
 
---------------------------0--------------0---| 
-----3---3------1---3------2---2------2-------| 
-----2---2------2---4------2---2------2---2---| 
-----5---5------7---3----------5------5---2---| 
----------------------------------------------| 
----------------------------------------------| 
 

  E  T T T E  T T T T E  T T T S E  T T S 
 
---------2----------2------2---2--------2-| 
-----3---3------3---3------2---2----2---2-| 
-----2----------2---2--------2------2-----| 
-----7----------2-------------------7-----| 
---------3---------------------3--------3-| 
------------------------------------------| 
 

  E  T T T T E  T T S E  T T T E  T T T T T 
 
-------3-3----------3-----------------------| 
-------3---3----0--------3---4------0---4---| 
-------4--------7---2----3---7------8---7---| 
---------4------8---0----4---4------7---4---| 
--------------------------------------------| 
--------------------------------------------| 
 

  E  T T  T E  T T T T E.  T T T E  T T T T 
 
-----3-----------0---3-----0---0------0-----| 
----------0------8---0-----2---2------2---2-| 
-----5----7----------0-----2---2------2---2-| 
-----4---10------9------------------------5-| 
--------------------------------------------| 
--------------------------------------------| 
 

  E  T T T E  T T T T E  T T T T E  T T T T T 
 
---------0------0---0-------------------------| 
-----1---2------2---2------3---3------3---3---| 
-----2---2----------2------2----------2---2---| 
-----6-------------------------2--------------| 
----------------3-----------------------------| 
----------------------------------------------| 
 

  E  T T T E  T T T T E  T T T T E  T T T T T 
 
---------------------------0---0------0---0---| 
-----2---2------2---2------0---0----------0---| 
-----2---2----------2-------------------------| 
----------------2---------------------4-------| 
----------------------------------------------| 
----------------------------------------------| 
 

  E  T T T E  T T T T E  T T T T E  T T T T T 
 
---------------------------0---0------0---0---| 
-----3---3------3---3------0---0------0---0---| 
---------4------4-----------------------------| 
-----4--------------4-------------------------| 
----------------------------------------------| 
----------------------------------------------| 
 

  E  T T T E  T T T T E  T T T T E  T T T T T 
 
-----0---0------0----------0---0------0-------| 
-----0----------0---0------3--------------2---| 
--------------------4----------2------1---4---| 
---------4------------------------------------| 
----------------------------------------------| 
----------------------------------------------| 
 

  E  T T T E  T T T T E  T T T T E  T T T T T 
 
----------------------------------------------| 
---------3------3---3------2---2------2---2---| 
-----2---2---------------------2----------2---| 
-----7----------2---2------2----------2-------| 
----------------------------------------------| 
----------------------------------------------| 
 

  E  T T T E  T T T T E  T T T T E  T T T T T 
 
---------0----------0-------------------------| 
-----0---0------0---0------3---3------3---0---| 
-----4----------4----------4---4----------2---| 
--------------------------------------4-------| 
----------------------------------------------| 
----------------------------------------------| 
 

  S. T T T E.  T T T E  T T T T E  T T T T T 
 
-------------------0------0---0----------0---| 
-----0---0-----0---0------0---0------0---0---| 
-----4---4-----4---------------------4-------| 
---------------------------------------------| 
---------------------------------------------| 
---------------------------------------------| 
 

  E  T T T E  T T T T E  T T T T E  T T T T T 
 
----------------------------------------------| 
-----3---3----------3------3---3------3---3---| 
-----2---2------2----------2----------2---2---| 
----------------7---2----------2--------------| 
----------------------------------------------| 
----------------------------------------------| 
 

  E  T S T E  T T T E  T T T T E  T T T T T 
 
--------------------------------------------| 
---------3----3---3------3----------3---3---| 
-----2----------2--------2---2------2---2---| 
-----7---2--------2----------7--------------| 
--------------------------------------------| 
--------------------------------------------| 
 

  E  T T T E  T T T T E  T T T T E  T T T T T 
 
----------------------------------------------| 
-----3----------3----------3---3----------3---| 
---------2------2---2----------2------2---2---| 
-----2---7----------7------2----------7-------| 
----------------------------------------------| 
----------------------------------------------| 
 

  E  T T T E  T T T T E  T T T T E  T T T T T 
 
----------------------------------------------| 
-----3---3------3----------3----------3-------| 
-----2---2------2---2------2---2------2---2---| 
--------------------7----------7----------7---| 
----------------------------------------------| 
----------------------------------------------| 
 

  E  T T T T E  T T T T E  T T T E  T T T T T 
 
----------------------------------------------| 
---------------------------2----------2-------| 
-------2---2------2---2----2---2------2---2---| 
-------7---7------7---7--------6----------6---| 
----------------------------------------------| 
----------------------------------------------| 
 

  E  T T T E  T T T T E  T T T T E  T T T T T 
 
----------------------------------------------| 
-----3---0------3---3------3---3------3---3---| 
-----4---2------4--------------4------4-------| 
--------------------4------4--------------4---| 
----------------------------------------------| 
----------------------------------------------| 
 

  E  T T T E  T T T T E  T T T S E  T T T T 
 
-----0---0------0---0------0--------0-------| 
---------0----------0------0---0----0---0---| 
-------------------------------4--------4---| 
-----4----------4---------------------------| 
--------------------------------------------| 
--------------------------------------------| 
 

  E  T T T E  T T T T E  T T T T E  T T T T T 
 
-----0---0------0---0------0---0------0---0---| 
--------------------2------2---2----------2---| 
-----1---1------1---------------------1-------| 
----------------------------------------------| 
----------------------------------------------| 
----------------------------------------------| 
 

  E  T T T E  T T T S E  T T T Q    T 
 
-----0---0------0---0----0------------| 
---------0------0---0--------0--------| 
-----------------------------4--------| 
-----4-------------------4------------| 
--------------------------------------| 
--------------------------------------| 
 

  E  T T T E  T T T T E  T T T T E  T T T T T 
 
-----0----------0----------0---0------0-------| 
-----2---2------2---2------2---2----------0---| 
---------4----------4-----------------1---6---| 
----------------------------------------------| 
----------------------------------------------| 
----------------------------------------------| 
 

  E  T T T E  T T T T E  T T T T E  T T T S 
 
-----0----------0---0------0---0----------0-| 
-----0---0------0---0------0---0------0---0-| 
---------4----------------------------4-----| 
--------------------------------------------| 
--------------------------------------------| 
--------------------------------------------| 
 

  E  T T T E  T T T T E  T T T T E  T T T T T 
 
-----0----------0--------------0------0---0---| 
---------0----------0------0------------------| 
-----1---6------1---6------6---6------6-6-----| 
----------------------------------------------| 
----------------------------------------------| 
----------------------------------------------| 
 

  E  T T S E  T T T E  T T T T Q    T 
 
-----2---0----0---0----------2--------| 
-----0---7----7---7------3---3--------| 
-------------------------6------------| 
--------------------------------------| 
--------------------------------------| 
--------------------------------------| 
 

  E  T T S E  T T T E  T T T T E  T T T T T 
 
--------------------------------------------| 
-----0---3----3---3------3---0------3---3---| 
-----2---4----4---4------4---2----------4---| 
------------------------------------4-------| 
--------------------------------------------| 
--------------------------------------------| 
 

  E  T T S E  T T S E  T T T E  T T T S 
 
----------------------------------------| 
-----3---3----3---0----3---3------0---3-| 
------------------2---------------2---4-| 
-----4---4----4--------4---4------------| 
----------------------------------------| 
----------------------------------------| 
 

  E  T T T E  T T T T E  T T T S E  T T S 
 
------------------------------------------| 
-----3---3------3---3------3---3----3---3-| 
-----4---4----------4---------------------| 
----------------4----------4---4----4---4-| 
------------------------------------------| 
------------------------------------------| 
 

  E  T T S E  T T T E  T T T T E  T T T T T 
 
--------------------------------------------| 
-----2---0----2---2------3---3------3---3---| 
-----4---1----3---3------4---4------4---4---| 
--------------------------------------------| 
--------------------------------------------| 
--------------------------------------------| 
 

  E  T T S E  T T T E  T T T T E  T T T S 
 
-----0---0----0----------0---0------0-----| 
-----0---0----0---0----------0----------0-| 
------------------4---------------------4-| 
-------------------------4----------4-----| 
------------------------------------------| 
------------------------------------------| 
 

  E  T T S E  T T T E  T T T T E  T T T T T 
 
--------------------------------------------| 
-----0---3----0---3------3---3------0---3---| 
-----2---4----2---4------4----------2-------| 
-----------------------------4----------4---| 
--------------------------------------------| 
--------------------------------------------| 
 

  E  T T S E  T T T E  T T T T E  T T T T T 
 
-----0---0----0--------------0------0-------| 
-----0---0----0---0------0----------0---0---| 
------------------4------4--------------4---| 
-----------------------------4--------------| 
--------------------------------------------| 
--------------------------------------------| 
 

  E  T T T E  T T T T E  T T T T E  T T T T T 
 
-----0----------0----------0---0------0---0---| 
-----3---3------3---3----------3------3---3---| 
---------4----------4------2------------------| 
----------------------------------------------| 
----------------------------------------------| 
----------------------------------------------| 
 

  E  T T T T E  T T T T E  T T T E  T T T T T 
 
-------0---0------0--------0---0------0---0---| 
-------2----------2---2--------2------2---2---| 
-----------1----------4----1------------------| 
----------------------------------------------| 
----------------------------------------------| 
----------------------------------------------| 
 

  E  T T T E  T T T T E  T T T T E  T T T S 
 
---------2------2---2------2---2------------| 
-----3----------3---3------2---2------2---2-| 
-----2---3----------------------------2---2-| 
-----7---2----------------------------2---2-| 
----------------3---3------3---3------------| 
--------------------------------------------| 
 

  E  T T S E  T T T E  T T T T E  T T T T T 
 
-----3---3--------3------3---3------3---3---| 
-----3--------3---3------3---3------3---3---| 
-----4---2----7---4------4------------------| 
---------5----5--------------0------0---0---| 
--------------------------------------------| 
--------------------------------------------| 
 

  E   T T T E  T T T T E  T T T T E  T T T T T 
 
----------3------0---3---------------------0---| 
------0----------0---0------2---1------2---2---| 
------7---5------3---0------4---2------2---2---| 
-----10---4-----------------3---6------5-------| 
-----------------------------------------------| 
-----------------------------------------------| 
 

  E  T T T E  T T T T E  T T T T E  T T T T T 
 
---------0------0---0------2---2--------2-2---| 
-----0--------------2------3---3------3-------| 
-----2---2------2---2---------------------2---| 
-----7---2------2---------------------2---3---| 
---------------------------3---3--------------| 
----------------------------------------------| 
 

  E  T T T E  T T T T E  T T T T E  T T T S 
 
---------2----------2------2--------------2-| 
-----3----------3---3------2---2------2-----| 
-----2---2------6---2----------2------2---1-| 
-----2----------3--------------7------2---3-| 
---------3-----------------3----------------| 
--------------------------------------------| 
 

  E  T T  T E  T T T T E  T T T S E  T T T T 
 
-------3-----------3-3----------3------------| 
-----0----0------0---5------0---3----3---3---| 
-----4----7------4---4------7---4----7---3---| 
---------10-----------------8--------5---4---| 
---------------------------------------------| 
---------------------------------------------| 
 

  E  T T T E  T T T T E  T T T T E  T T T T T 
 
-----3---0----------------------------0---0---| 
-----0---0------0---0------0---2----------2---| 
-----0---3------8---4------2---5------2-------| 
----------------9---8------7---2------2-------| 
------------------------------------------3---| 
----------------------------------------------| 
 

  E  T T T E  T T T T E  T T T T E  T T T S 
 
-----0----------0----------2---2----------2-| 
---------2----------2-----------------3-----| 
-----1---2------2---4------2---2------2---2-| 
-----3---5------2---3------3---3------2-----| 
------------------------------------------3-| 
--------------------------------------------| 
 

  E  T T T E  T T T T E  T T T T E  T T T T T 
 
---------2----------2--------2-2----------2---| 
-----3----------3---------------------3---3---| 
-----2---3------2---2------2---2------2-------| 
-----7---2------7---3------7---3------2-------| 
------------------------------------------3---| 
----------------------------------------------| 
 

  E  T T T E  T T T S E  T T T E  T T T T T 
 
---------2------2------------3------3---3---| 
-----2----------1---1----0---3------3-------| 
-----5---1------2---2----7--------------3---| 
---------2----------7----8---0------0---4---| 
-----3--------------------------------------| 
--------------------------------------------| 
 

  E  T T T E  T T T  T E  T T T T E  T T T T T 
 
-----------------------------------------------| 
-----2---2------3-----------7---7------7---7---| 
-----3---3------3----3------0---7------7---0---| 
-----7---7------6----7------7---9------9---7---| 
--------------------11-------------------------| 
-----------------------------------------------| 
 

  E  T T T E  T T T T E  T T T T E  T T T T T 
 
---------3------------------------------------| 
-----4---3------3---3------3---3------1---3---| 
-----7---4------7---4------2---2------2---4---| 
-----4----------5---3------5---5------7---3---| 
----------------------------------------------| 
----------------------------------------------| 
 

  E  T T T E  T T T T E  T T T T E  T T T T T 
 
-----0--------------0----------2----------2---| 
-----2---2------2----------3---3------3---3---| 
-----2---2------2---2------2----------2---2---| 
---------5------5---2------7----------2-------| 
-------------------------------3--------------| 
----------------------------------------------| 
 

  E  T T S E  T T S E  T T T T E  T T S 
 
-----2---2--------2------3-3----------3-| 
-----2---2----2---2------3---3----0-----| 
-------2------2----------4--------7---2-| 
--------------7------------4------8---0-| 
---------3--------3---------------------| 
----------------------------------------| 
 

  E  T T T E  T T T T E  T T T  T E  T T T T T 
 
---------------------------3-----------0---3---| 
-----3---4------0---4-----------0------8---0---| 
-----3---7------8---7------5----7----------0---| 
-----4---4------7---4------4---10------9-------| 
-----------------------------------------------| 
-----------------------------------------------| 
 

  E  T T T T E  T T T T E  T T T E  T T T T T 
 
-------0---0------0------------0------0---0---| 
-------2---2------2---2----1---2------2---2---| 
-------2---2------2---2----2---2----------2---| 
----------------------5----6------------------| 
--------------------------------------3-------| 
----------------------------------------------| 
 

  E   S E.  S E.  T T T E  T T T T T 
 
-------------------------------------| 
------3-3---3-3---2---2------2---2---| 
------6-2---2-2---2---2----------2---| 
------3-3---2-6--------------2-------| 
-----12-7---3-8----------------------| 
-----12-----3-8----------------------| 
 

  E  T T T E  T T T T E  T T T T E  T T T T T 
 
-----0---0------0---0-------------------------| 
-----0---0----------0------3---3------3---3---| 
-------------------------------4------4-------| 
----------------4----------4--------------4---| 
----------------------------------------------| 
----------------------------------------------| 
 

  E  T T T E  T T T T E  T T T T E  T T T T T 
 
-----0---0------0---0------0---0------0-------| 
-----0---0------0---0------0----------0---0---| 
------------------------------------------4---| 
-------------------------------4--------------| 
----------------------------------------------| 
----------------------------------------------| 
 

  E  T T T E  T T T T E  T T T T E  T T T T T 
 
-----0---0------0-----------------------------| 
-----3--------------2----------3------3---3---| 
---------2------1---4------2---2--------------| 
---------------------------7----------2---2---| 
----------------------------------------------| 
----------------------------------------------| 
 

  E  T T T E  T T T T E  T T T T E  T T T T T 
 
-------------------------------0----------0---| 
-----2---2------2---2------0---0------0---0---| 
---------2----------2------4----------4-------| 
-----2----------2-----------------------------| 
----------------------------------------------| 
----------------------------------------------| 
 

  E  T T T E  T T T T E  T T T E.  T T T T 
 
---------------------------------------0---| 
-----3---3------3---0----0---0-----0---0---| 
-----4---4----------2----4---4-----4-------| 
----------------4--------------------------| 
-------------------------------------------| 
-------------------------------------------| 
 

  E  T T T E  T T T T E  T T T T E  T T T T T 
 
-----0---0----------0-------------------------| 
-----0---0------0---0------3---3----------3---| 
----------------4----------2---2------2-------| 
--------------------------------------7---2---| 
----------------------------------------------| 
----------------------------------------------| 
 

  H        E  T T T E  T T T T T    E  T T T E  T T T S E  T T S E  T T T T 
 
------------------2------2---2---|-----2---2---------------3---3--------3---| 
--------------3----------3---3---|-----2---2------2---2----3--------3---3---| 
--------------2---3--------------|----------------2---2----4---2----7---4---| 
--------------7---2--------------|----------------2---2--------5----5-------| 
-------------------------3---3---|-----3---3--------------------------------| 
---------------------------------|------------------------------------------| 
 

  E  T T T E  T T T T E  T  T T T E  T T T T T 
 
-----3---3------3---3-----------3------0---3---| 
-----3---3------3---3-------0----------0---0---| 
-----4----------------------7---5------3---0---| 
---------0------0---0------10---4--------------| 
-----------------------------------------------| 
-----------------------------------------------| 
 

  E  T T T E  T T T T E  T T T T E  T T T T T 
 
--------------------0----------0------0---0---| 
-----2---1------2---2------0--------------2---| 
-----4---2------2---2------2---2------2---2---| 
-----3---6------5----------7---2------2-------| 
----------------------------------------------| 
----------------------------------------------| 
 

  E  T T T E  T T T T E  T T T T E  T T T T T 
 
-----2---2--------2-2----------2----------2---| 
-----3---3------3----------3---3------3---3---| 
--------------------2------2----------2---2---| 
----------------2---3------7----------2-------| 
-----3---3---------------------3--------------| 
----------------------------------------------| 
 

  E  T T S E  T T S E  T T T T E  T T S 
 
-----2---2--------2------3-3----------3-| 
-----2---2----2---2------3---3----0-----| 
-------2------2----------4--------7---2-| 
--------------7------------4------8---0-| 
---------3--------3---------------------| 
----------------------------------------| 
 

  E  T T T E  T T T T E  T T T  T E  T T T T T 
 
---------------------------3-----------0---3---| 
-----3---4------0---4-----------0------8---0---| 
-----3---7------8---7------5----7----------0---| 
-----4---4------7---4------4---10------9-------| 
-----------------------------------------------| 
-----------------------------------------------| 
 

  E  T T T T E  T T T T E  T T T E  T T T T T 
 
-------0---0------0------------0------0---0---| 
-------2---2------2---2----1---2------2---2---| 
-------2---2------2---2----2---2----------2---| 
----------------------5----6------------------| 
--------------------------------------3-------| 
----------------------------------------------| 
 

  E   S E.  S E.  T T T E  T T T T T 
 
-------------------------------------| 
------3-3---3-3---2---2------2---2---| 
------6-2---2-2---2---2----------2---| 
------3-3---2-6--------------2-------| 
-----12-7---3-8----------------------| 
-----12-----3-8----------------------| 
 

  E  T T T E  T T T T E  T T T T E  T T T T T 
 
-----0---0------0---0-------------------------| 
-----0---0----------0------3---3------3---3---| 
-------------------------------4------4-------| 
----------------4----------4--------------4---| 
----------------------------------------------| 
----------------------------------------------| 
 

  E  T T T E  T T T T E  T T T T E  T T T T T 
 
-----0---0------0---0------0---0------0-------| 
-----0---0------0---0------0----------0---0---| 
------------------------------------------4---| 
-------------------------------4--------------| 
----------------------------------------------| 
----------------------------------------------| 
 

  E  T T T E  T T T T E  T T T T E  T T T T T 
 
-----0---0------0-----------------------------| 
-----3--------------2----------3------3---3---| 
---------2------1---4------2---2--------------| 
---------------------------7----------2---2---| 
----------------------------------------------| 
----------------------------------------------| 
 

  E  T T T E  T T T T E  T T T T E  T T T T T 
 
-------------------------------0----------0---| 
-----2---2------2---2------0---0------0---0---| 
---------2----------2------4----------4-------| 
-----2----------2-----------------------------| 
----------------------------------------------| 
----------------------------------------------| 
 

  E  T T T E  T T T T E  T T T E.  T T T T 
 
---------------------------------------0---| 
-----3---3------3---0----0---0-----0---0---| 
-----4---4----------2----4---4-----4-------| 
----------------4--------------------------| 
-------------------------------------------| 
-------------------------------------------| 
 

  E  T T T E  T T T T E  T T T T E  T T T T T    W 
-----0---0----------0-------------------------|-------------------|| 
-----0---0------0---0------3---3----------3---|-------------------|| 
----------------4----------2---2------2-------|-------------------|| 
--------------------------------------7---2---|-------------------|| 
----------------------------------------------|-------------------|| 
----------------------------------------------|-------------------|| 

W - whole 
H - half 
Q - quarter 
E|- 8th 
S - 16th 
T - 32nd 
X - 64th 
. - note dotted 
|-n-|  - n-tuplets 

L - tied note 
x - dead note 
G|- grace note 
(n) - ghost note 
> - accentuded note 
NH - natural harmonic 
AH - artificial harmonic 
TH - tapped harmonic 
SH - semi harmonic 
PH - pitch harmonic 
h - hammer on 
p - pull off 
B|- bend 
br - bendRelease 
pb - preBend 
pbr - preBendRelease 
brb - bendReleaseBend 
\n/ - tremolo bar dip 
\n - tremolo bar dive 
-/n - tremolo bar Release up 
/n\ - tremolo bar inverted dip 
/n - tremolo bar return 
-\n - tremolo bar Release down 
S - shift slide 
s - legato slide 
/ -  slide into from below or out of upwards 
\ -  slide into from above or out of downwards 
~ - vibrato 
W - wide vibrato 
tr - trill 
TP - tremolo picking 
T - tapping 
S - slap 
P - pop 
< - fade in 
^ - brush up 
v - brush down  
less
plus
Add to Songbook Print Version How to play lesson Submit videolesson
Click the best TAGS for this song:
None of them
Contributor: Frikvick Correct

If you can not find the chords or tabs you want, look at our partner E-chords. If you are a premium member, you have total access to our video lessons.

If you find a wrong Bad To Me from ABBA, click the correct button above.

login/signup
my songbooks
my recent views
my submits