S ABBA

My Love, My Life bass

ABBA

Album:Love Stores

Year:1998

tools Ultimate Tabs

Start AutoScroll Font Size Down Font Size Up

Find us on Facebook

chords
tabs
bass
ukulele keyboards
drums
flute
harmonica
guitar pro video
Ultimate-Tabs

My Love, My Life

++++++++++++++++++++++++++
| Abba- My Love, My Life |
++++++++++++++++++++++++++


"Still my one and only..."


Tuning: EADG




Chorus
"Like an image passing by..."
1.
G|---------------------------------------------5h7p5~----5-4-2-0-|
D|-------------------------3~-4~-5~---5-7-9~------------5--------|
A|--------0-2~---3h5p3~------------------------------------------|
E|-3~---3--------------------------------------------------------|

"I can see it all so clearly..."
2.
G|----------------------------------------------------|
D|-4~---4-2-0~----5~---0-2~----7~-5~-4~---4-5~--------|
A|----------------------------------------------------|
E|----------------------------------------------------|

"Like reflections of your mind..."
3.
G|---------------------------------------------5h7p5~----|
D|-------------------------3~-4~-5~---5-7-9~-------------|
A|--------0-2~---3h5p3~----------------------------------|
E|-3~---3------------------------------------------------|

"But I know I dont possess you..."
4.
G|----------------------------------------------------------------------|
D|-2~---2-3~----5~---3-2~------------------------------3~---------------|
A|---------------------------3~------------------0~----------/3~--------|
E|---------------------------------1~---1-0~---0------------------------|

Verse
"I've watched you look away..."
5.
G|-5~---5h7p5-4h5p4~----5h7p5~---7-5---5---------------|
D|-----------------------------------7---3~--4-5~--6~--|
A|-----------------------------------------------------|
E|-----------------------------------------------------|

"This has been my longest day..."
6.
G|------------------------------------------------------------------------------------------|
D|-7~---5-4~---4-5~----2~---7/9-7~--5~--4~---4-5~----2~---7/9--7~---7-5~----------5~--------|
A|--------------------------------------5~----------------------------------5~--------------|
E|------------------------------------------------------------------------------------------|

Chorus
"Like an image passing by..."
7.
G|---------------------------------------------5h7p5~----5-4-2-0-|
D|-------------------------3~-4~-5~---5-7-9~------------5--------|
A|--------0-2~---3h5p3~------------------------------------------|
E|-3~---3--------------------------------------------------------|

"I can see it all so clearly..."
8.
G|----------------------------------------------------|
D|-4~---4-2-0~----5~---0-2~---------------------------|
A|----------------------------------------------------|
E|-----------------------------5~-3~-2~---2-3~--------|

"Like reflections of your mind..."
9.
G|---------------------------------------------5h7p5~----|
D|-------------------------3~-4~-5~---5-7-9~-------------|
A|--------0-2~---3h5p3~----------------------------------|
E|-3~---3------------------------------------------------|

"But I know I dont possess you..."
10.
G|---------------------------------------------------------------|
D|-2~---2-3~---3-5~---3-2~-----------------------------------0-2-|
A|----------------------------3~------------------0~---2-3~------|
E|----------------------------------1~---1-0~---0----------------|

"Yes I know I dont possess you..."
11.
G|----------------------------------------------------------------|
D|-3~---3-5~---3----------------------------------3~--------------|
A|---------------3~---3-3~------------------0~----------3~--------|
E|----------------------------1~---1-0~---0-----------------------|


Please rate thanks!

Lyrics:

I've seen it on your face
Tells me more than any worn-out old phrase
So now we'll go separate ways
Never again we two
Never again, nothing I can do

Like an image passing by, my love, my life
In the mirror of your eyes, my love, my life
I can see it all so clearly
Answer me sincerely
Was it a dream, a lie?

Like reflections of your mind, my love, my life
Are the words you try to find, my love, my life
But I know I don't possess you
So go away, God bless you
You are still my love and my life
Still my one and only

I've watched you look away
Tell me is it really so hard to say?
Oh, this has been my longest day
Sitting here close to you
Knowing that maybe tonight we're through



+++++++++++
| Raileff |
+++++++++++
less
plus
Add to Songbook Print Version How to play lesson Submit videolesson
Click the best TAGS for this song:
None of them
Contributor: Juannoem Correct

If you can not find the chords or tabs you want, look at our partner E-chords. If you are a premium member, you have total access to our video lessons.

If you find a wrong Bad To Me from ABBA, click the correct button above.

login/signup
my songbooks
my recent views
my submits