S ABBA

One Of Us bass

ABBA

Album:The Visitors

Year:1981

tools Ultimate Tabs

Start AutoScroll Font Size Down Font Size Up

Find us on Facebook

chords
tabs
bass
ukulele keyboards
drums
flute
harmonica
guitar pro video
Ultimate-Tabs

One Of Us

+++++++++++++++++++
| ABBA- One Of Us |
+++++++++++++++++++


"They passed me by, all of those great romances..."


Tuning: EADG



Intro
1.
G|-----------------------|
D|--------------------55-|
A|-----------------------|
E|-3---33----3---33------|

Verse
"They passed me by..."
2.
G|--------------------9---7----------------------------|
D|-----------------------------------------------------|
A|------------------7---5---3---32---23---33---35---55-|
E|-3---33---357---7------------------------------------|

"My picture clear..."
3.
G|----------------------------------------------------------------------------------------7---7-|
D|-----------------------------------------00-----00------22-----22-----------------------------|
A|------------------7~---7-5~---553---32--2--2--22--2----2--2--22--2-0~---0------3/5~---5---5---|
E|-3---33---357---7------------------------------------0--------------------3~------------------|

Chorus
"One of us is crying..."
4.
G|-------------------------------------------------------------------|
D|---------------4-----------------------------------------7-7-7-5h7-|
A|----------------------345-5-5-55-3-3-3-357\------------------------|
E|-3-3-3-332-2-2---0-0-0---------------------004040-5-5555-----------|

"Staring at the ceiling..."
5.
G|--------------------------------------------------------------------------|
D|--------------------------------------------------------------------------|
A|-5-5-55-5-5-5-5h7p5-3-3-3-33-55--5-55-----------------2-3-3-3-33-5-5-5-55-|
E|--------------------------------------3-3-3-35-0-0-0-0--------------------|

"One of us is lonely..."
6.
G|--------------------------------------------------------------------|
D|--------------------------------------------------------------------|
A|----------------------345-5-5-55-3-3-3-357\-----------------------2-|
E|-3-3-3-332-2-2-2-0-0-0---------------------004040-5-5-5-55-5-5-5-5--|

"Sorry for herself..."
7.
G|---------------------------------------------------|
D|---------------------------------------------------|
A|-4-4-4-445-5-5-555-5-5-555-5-5-555-5-5-555~--------|
E|---------------------------------------------------|

Verse
"I saw myself..."
8.
G|---------------------9---7---------------------------------|
D|-----------------------------------------------------------|
A|-------------------7---5---3---332---223---333---335---555-|
E|-3---333---357---77----------------------------------------|

"My picture clear..."
9.
G|----------------------------------------------------------------------------------------7---7-|
D|-----------------------------------------00-----00------22-----22-----------------------------|
A|------------------7~---7-5~---553---32--2--2--22--2----2--2--22--2-0~---0------3/5~---5---5---|
E|-3---33---357---7------------------------------------0--------------------3~------------------|

Chorus
"One of us is crying..."
10.
G|-------------------------------------------------------------------|
D|---------------4-----------------------------------------7-7-7-5h7-|
A|----------------------345-5-5-55-3-3-3-357\------------------------|
E|-3-3-3-332-2-2---0-0-0---------------------004040-5-5555-----------|

"Staring at the ceiling..."
11.
G|--------------------------------------------------------------------------|
D|--------------------------------------------------------------------------|
A|-5-5-55-5-5-5-5h7p5-3-3-3-33-55--5-55-----------------2-3-3-3-33-5-5-5-55-|
E|--------------------------------------3-3-3-35-0-0-0-0--------------------|

"One of us is lonely..."
12.
G|--------------------------------------------------------------------|
D|--------------------------------------------------------------------|
A|----------------------345-5-5-55-3-3-3-357\-----------------------2-|
E|-3-3-3-332-2-2-2-0-0-0---------------------004040-5-5-5-55-5-5-5-5--|

"Sorry for herself..."
13.
G|---------------------------------------------------|
D|---------------------------------------------------|
A|-4-4-4-445-5-5-555-5-5-555-5-5-555-5-5-555~--------|
E|---------------------------------------------------|

Please rate thanks!


Lyrics:

They passed me by, all of those great romances
You were, I felt, robbing me of my rightful chances
My picture clear, everything seemed so easy
And so I dealt you the blow
One of us had to go
Now it's different, I want you to know

One of us is crying
One of us is lying
In her lonely bed
Staring at the ceiling
Wishing she was somewhere else instead
One of us is lonely
One of us is only
Waiting for a call
Sorry for herself, feeling stupid feeling small
Wishing she had never left at all

I saw myself as a concealed attraction
I felt you kept me away from the heat and the action
Just like a child, stubborn and misconceiving
That's how I started the show
One of us had to go
Now I've changed and I want you to know



+++++++++++
| Raileff |
+++++++++++
less
plus
Add to Songbook Print Version How to play lesson Submit videolesson
Click the best TAGS for this song:
None of them
Contributor: chooblin Correct

If you can not find the chords or tabs you want, look at our partner E-chords. If you are a premium member, you have total access to our video lessons.

If you find a wrong Bad To Me from ABBA, click the correct button above.

login/signup
my songbooks
my recent views
my submits