S ABBA

Super Trouper bass

ABBA

Album:ABBA Live

Year:1986

tools Ultimate Tabs

Start AutoScroll Font Size Down Font Size Up

Find us on Facebook

chords
tabs
bass
ukulele keyboards
drums
flute
harmonica
guitar pro
video
Ultimate-Tabs

Super Trouper

So i noticed there were no bass tabs of this song on ultimate guitar 
so i decided to tab one out, i spent about an hour and a half 
listening to it and tabbing it by ear so i hope you like it. 
If there's a problem with the tab just comment and i'll 
try and sort it out, thanks :)

Also this is tabbed for 5-stringed bass, if you want me to tab it for four string just let me know

Key: C major

Time Sig: 4/4

Intro 
  E E Q  Q  E  E   E E Q  E E E E   E E Q  Q  E E    E E Q  E E Q  
G|----------------|----------------|----------------|----------------|
D|----------------|----------------|----------------|----------------|
A|3-3-------------|3-3-------------|-------7----7---|----------------|
E|----5--3--5-3---|----5--3-3-5-3--|5-5-8-----8-----|5-5-8--5-7-8----|
B|----------------|----------------|----------------|----------------|
  E E Q  Q  E E    E E Q  E E Q     E E Q  Q  E E    E E Q  E E E E
G|----------------|----------------|----------------|----------------|
D|-------7----7---|----------------|5-5-2-----2-----|5-5-2------2----|
A|5-5-8-----8-----|5-5-8--5-7-8----|-------5----5---|-------5-5---5\-|
E|----------------|----------------|----------------|----------------|
B|----------------|----------------|----------------|----------------|

Verse 1
  E E Q  E E E E   E E Q  E E Q     E E Q  E E Q     E E Q  E E Q
G|----------------|----------------|----------------|----------------|
D|----------------|----------------|-------7-7------|5-5-------------|
A|3-3-------------|7-7-7--7-7-7----|5-5-8------8----|----5--5-x-5\---|
E|----5--5-3-5-3--|----------------|----------------|----------------|
B|----------------|----------------|----------------|----------------|

  E E Q  Q  E E    E E Q  E E Q     E E Q  E E  Q    E E Q  E E E E 
G|----------------|----------------|----------------|----------------|
D|----------------|----------------|----------------|5-5-------------|
A|3-3-------------|----------------|5-7-8--7-10-12--|----7--5-5-7-5--|
E|----5--5--5-3---|x---------------|----------------|----------------|
B|----------------|--5-5--x-5-5----|----------------|----------------|

Prechorus
  Q.  E H          Q.  E H          Q.  E H          Q.  E H
G|----------------|----------------|----------------|----------------|
D|----------------|----------------|----------------|----------------|
A|8---8-8---------|7---7-7---------|8---8-8---------|7---7-7---------|
E|----------------|----------------|----------------|----------------|
B|----------------|----------------|----------------|----------------|

  Q.  E H          Q.  E Q  Q       Q  Q  Q  SSE(Tied)E  E Q  SS E E  E  
G|----------------|----------------|----------------|----------4-1212-7|
D|----------------|----------------|-----------5----|(5)-5-5--5--------|
A|8---8-8---------|3---3-3--3------|---------35-----|------------------|
E|----------------|----------------|3--3--3---------|------------------|
B|----------------|----------------|----------------|------------------|

Chorus
  E E E SSE E E SS E E E SSE E E SS E E E SSE E E SS E E E SSE E E SS
G|----------------|----------------|----------------|----------------|
D|--5-5-5---5-5-5-|--5-5-5---5-5-5-|--5-5-5---5-5-5-|--5-5-5---5-5-5-|
A|3------33------3|3------33------3|3------33------3|-------5-------5|
E|----------------|----------------|----------------|3-------3-------|
B|----------------|----------------|----------------|----------------|

                                                  x2   1st time Bar
  E E E SSE E E SS E E E SSE E E SS E E E SSE E E SS E E E SSE E E SS
G|--7-7-7---7-7-7-|----------------|----------------|----------------|
D|-------7-------7|--5-5-5---5-5-5-|--5-5-5---5-5-5-|--5-5-5---5-5-5-|
A|5-------5-------|-------5-------5|-------5-------5|3------33------3|
E|----------------|3-------3-------|3-------3-------|----------------|
B|----------------|----------------|----------------|----------------|

2nd time bar
(Intro)
  E E Q  Q  E  E   E E Q  E E E E   E E Q  Q  E E    E E Q  E E Q  
G|----------------|----------------|----------------|----------------|
D|----------------|----------------|----------------|----------------|
A|3-3-------------|3-3-------------|-------7----7---|----------------|
E|----5--3--5-3---|----5--3-3-5-3--|5-5-8-----8-----|5-5-8--5-7-8----|
B|----------------|----------------|----------------|----------------|

  E E Q  Q  E E    E E Q  E E Q     E E Q  Q  E E    E E Q  E E E E
G|----------------|----------------|----------------|----------------|
D|-------7----7---|----------------|5-5-2-----2-----|5-5-2------2----|
A|5-5-8-----8-----|5-5-8--5-7-8----|-------5----5---|-------5-5---5\-|
E|----------------|----------------|----------------|----------------|
B|----------------|----------------|----------------|----------------|

Verse 2

  E E Q  E E E E   Q.  E Q  Q       E E Q  Q  E E    E E Q  E E Q 
G|----------------|----------------|----------------|----------------|
D|----------------|----------------|-------7----7---|x-5--------5----|
A|3-3-------------|7---7-7--7------|5-5-8-----8-----|----7--5-7------|
E|----5--5-3-5-3--|----------------|----------------|----------------|
B|----------------|----------------|----------------|----------------|
  
  E E Q  E E E E   E E E E E E Q    E E Q  E E Q     E E E E Q  E  E
G|----------------|----------------|----------------|----------------|
D|----------------|----------------|----------------|----------------|
A|3-3-------------|7-7-x-7-7-x-7---|5-5-------------|----------------|
E|----5--5-3-5-3--|----------------|-----------5----|3-3-r-3-3/-15---|
B|----------------|----------------|----3--5-5------|--------------15|

Prechorus

  Q.  E H          Q.  E H          Q.  E H          Q.  E H
G|----------------|----------------|----------------|----------------|
D|----------------|----------------|----------------|----------------|
A|8---8-8---------|7---7-7---------|8---8-8---------|7---7-7---------|
E|----------------|----------------|----------------|----------------|
B|----------------|----------------|----------------|----------------|

  Q.  E H          Q.  E Q  Q       Q  Q  Q  SSE(TIED)E  E SS E  E  E E      
G|----------------|----------------|----------------|------57-12-12-----|
D|----------------|----------------|-----------5----|(5)-5--------- 12--|
A|8---8-8---------|3---3-3--3\-----|---------35-----|---------------- 10|
E|----------------|----------------|3--3--3---------|-------------------|
B|----------------|----------------|----------------|-------------------|

Chorus

  E E E SSE E E SS E E E SSE E E SS E E E SSE E E SS E E E SSE E E SS
G|----------------|----------------|----------------|----------------|
D|--5-5-5---5-5-5-|--5-5-5---5-5-5-|--5-5-5---5-5-5-|--5-5-5---5-5-5-|
A|3------33------3|3------33------3|3------33------3|-------5-------5|
E|----------------|----------------|----------------|3-------3-------|
B|----------------|----------------|----------------|----------------|

                                                  x2   1st time Bar
  E E E SSE E E SS E E E SSE E E SS E E E SSE E E SS E E E SSE E E SS
G|--7-7-7---7-7-7-|----------------|----------------|----------------|
D|-------7-------7|--5-5-5---5-5-5-|--5-5-5---5-5-5-|--5-5-5---5-5-5-|
A|5-------5-------|-------5-------5|-------5-------5|3------33------3|
E|----------------|3-------3-------|3-------3-------|----------------|
B|----------------|----------------|----------------|----------------|

2nd time bar
Bridge
  E. SE Q.  E E    E. SE Q  E E E   Q.  E Q.  E      Q.   E  H
G|----------------|----------------|----------------|----------------|
D|----------------|----------------|----------------|----------------|
A|3--3--3---------|3--3--3--3-3/7--|8---8-8---8-----|12---12-12------|
E|----5-----3-5---|----3-----------|----------------|----------------|
B|----------------|----------------|----------------|----------------|

  Q.  E Q.  E      Q.  E Q  E E     Q.  E Q.  E      Q.  E Q.  E
G|----------------|----------------|----------------|----------------|
D|------5---5-----|---------5------|----------------|----------------|
A|5---5-----------|3---3-3----7----|8---8-8---8-----|5---5-7---7-----|
E|----------------|----------------|----------------|----------------|
B|----------------|----------------|----------------|----------------|

  Q.  E Q  Q       Q  Q  Q  Q       SSE  Q   Q    E  
G|----------------|----------------|--12-12--12-----|
D|----------------|5--5--5--5------|59--------------|
A|8---8-8--8------|----------------|-------------10-|
B|----------------|----------------|----------------|

Outro Chorus
  E E E SSE E E SS E E E SSE E E SS E E E SSE E E SS E E E SSE E E SS
G|----------------|----------------|----------------|----------------|
D|--5-5-5---5-5-5-|--5-5-5---5-5-5-|--5-5-5---5-5-5-|--5-5-5---5-5-5-|
A|3------33------3|3------33------3|3------33------3|-------5-------5|
E|----------------|----------------|----------------|3-------3-------|
B|----------------|----------------|----------------|----------------|

                                                  
  E E E SSE E E SS E E E SSE E E SS E E E SSE E E SS E E E SSE E E SS
G|--7-7-7---7-7-7-|----------------|----------------|----------------|
D|-------7-------7|--5-5-5---5-5-5-|--5-5-5---5-5-5-|--5-5-5---5-5-5-|
A|5-------5-------|-------5-------5|-------5-------5|3------33------3|
E|----------------|3-------3-------|3-------3-------|----------------|
B|----------------|----------------|----------------|----------------| x3

Then
  E E E SSE E E SS E E E SSE E E SS E E E SSE E E SS E E E SSE E E SS
G|----------------|----------------|----------------|----------------|
D|--r-5-5---r-5-5-|--r-5-5---r-5-5-|--r-5-5---r-5-5-|--r-5-5---r-5-5-|
A|3------33------3|3------33------3|3------33------3|-------5-------5|
E|----------------|----------------|----------------|3-------3-------|
B|----------------|----------------|----------------|----------------|

                                                  
  E E E SSE E E SS E E E SSE E E SS E E E SSE E E SS E E E SSE E E SS
G|--r-7-7---r-7-7-|----------------|----------------|----------------|
D|-------7-------7|--r-5-5---r-5-5-|--r-5-5---r-5-5-|--r-5-5---r-5-5-|
A|5-------5-------|-------5-------5|-------5-------5|3------33------3|
E|----------------|3-------3-------|3-------3-------|----------------|
B|----------------|----------------|----------------|----------------|
less
plus
Add to Songbook Print Version How to play lesson Submit videolesson
Click the best TAGS for this song:
None of them
Contributor: jhasmomo Correct

If you can not find the chords or tabs you want, look at our partner E-chords. If you are a premium member, you have total access to our video lessons.

If you find a wrong Bad To Me from ABBA, click the correct button above.

login/signup
my songbooks
my recent views
my submits