S ABBA

The name of the game bass

ABBA

Album:The Album

Year:1976

tools Ultimate Tabs

Start AutoScroll Font Size Down Font Size Up

Find us on Facebook

chords
tabs
bass
ukulele keyboards
drums
flute
harmonica
guitar pro
video
Ultimate-Tabs

The name of the game

++++++++++++++++++++++++++++++
| ABBA- The Name of The Game |
++++++++++++++++++++++++++++++


"Tell me please..."


Tuning: EADG


Intro
1.
G|---------------------------------------------------------------------|
D|---6-7-9-9----------6-7-9-9----------6-7-9-9----------6-7\-----------|
A|-9------------7-9-9------------7-9-9------------7-9-9------2~--------|
E|----------7-9--------------7-9--------------7-9----------------------|

Verse
"I've seen you twice..."
2.
G|---------------------------------------------------------------------|
D|---6-7-9-9----------6-7-9-9----------6-7-9-9----------6-7\-----------|
A|-9------------7-9-9------------7-9-9------------7-9-9------2~--------|--x2
E|----------7-9--------------7-9--------------7-9----------------------|

Pre-Chorus
"I was an impossible case..."
3.
G|-----------------------------------------------------------------|
D|----------------------------------------------------------2~-----|
A|-------4-6~----4~----5~----------4-6~----4~----5~----2~----------|
E|-2-4-5---------------------2-4-5-------------------------------4-|

Chorus
"Whats the name of the game?"
4.
G|-------------------------------------------------------------------------------------|
D|-------------------------------------------------------------------------------------|
A|------4-5-5-5--7--7-7-5-5-5-------4-5-5-5---------5-5-5-7------4-5-5-5--7--7-7-5-5-5-|
E|-5--5------------------------5--5----------0--0-0---------5--5-----------------------|

"Tell me please..."
5.
G|-----------------------------------------------------------------------|
D|----------------------------2~-----------------------2-2---2-2~--------|
A|------2-4--4-4--------2--2--------4~-----------2~----------------------|
E|-5--5----------2--2-2-------------------2~---2-------------------------|

"What Im trying to conceal..."
6.
G|--------------|
D|--------------|
A|-5~--------5\-|
E|--------------|

"If I trust in you..."
7.
G|-------------------------------------------------------------------------------------|
D|-------------------------------------------------------------------------------------|
A|-------------------------------------------------4~----4-5~---55~--5-------7~--------|
E|-5---55----5---55--5-0-5---55--5-2~---2~----4~---------------------------------------|

Outro
8.
G|---------------------------------------------------------------------|
D|---6-7-9-9----------6-7-9-9----------6-7-9-9----------6-7\-----------|
A|-9------------7-9-9------------7-9-9------------7-9-9------2~--------|
E|----------7-9--------------7-9--------------7-9----------------------|

Verse
"I have no friends..."
9.
G|---------------------------------------------------------------------|
D|---6-7-9-9----------6-7-9-9----------6-7-9-9----------6-7\-----------|
A|-9------------7-9-9------------7-9-9------------7-9-9------2~--------|--x2
E|----------7-9--------------7-9--------------7-9----------------------|

Pre-Chorus
"Your smile and the sound of your voice..."
10.
G|-----------------------------------------------------------------|
D|----------------------------------------------------------2~-----|
A|-------4-6~----4~----5~----------4-6~----4~----5~----2~----------|
E|-2-4-5---------------------2-4-5-------------------------------4-|

Chorus
"Whats the name of the game?"
11.
G|-------------------------------------------------------------------------------------|
D|-------------------------------------------------------------------------------------|
A|------4-5-5-5--7--7-7-5-5-5-------4-5-5-5---------5-5-5-7------4-5-5-5--7--7-7-5-5-5-|
E|-5--5------------------------5--5----------0--0-0---------5--5-----------------------|

"Tell me please..."
12.
G|-----------------------------------------------------------------------|
D|----------------------------2~-----------------------2-2---2-2~--------|
A|------2-4--4-4--------2--2--------4~-----------2~----------------------|
E|-5--5----------2--2-2-------------------2~---2-------------------------|

"What Im trying to conceal..."
13.
G|--------------|
D|--------------|
A|-5~--------5\-|
E|--------------|

"If I trust in you..."
14.
G|---------------------------------------------------------------------------------------------|
D|---------------------------------------------------------------------------------------------|
A|-------------------------------------------------4~----4-5~---55~--5-------7~--------7~------|
E|-5---55----5---55--5-0-5---55--5-2~---2~----4~-----------------------------------------------|

Chorus
"The name of the game?"
15.
G|-------------------------------------------------------------------------------------|
D|-------------------------------------------------------------------------------------|
A|------4-5-5-5--7--7-7-5-5-5-------4-5-5-5---------5-5-5-7------4-5-5-5--7--7-7-5-5-5-|
E|-5--5------------------------5--5----------0--0-0---------5--5-----------------------|

Play until song fades...

Please rate thanks!



Lyrics:

I've seen you twice, in a short time 
Only a week since we started 
It seems to me, for every time 
I'm getting more open-hearted 

I was an impossible case 
No one ever could reach me 
But I think I can see in your face 
There's a lot you can teach me 
So I wanna know 

What's the name of the game 
Does it mean anything to you 
What's the name of the game 
Can you feel it the way I do 
Tell me please, 'cause I have to know 
I'm a bashful child, beginning to grow 

And you make me talk 
And you make me feel 
And you make me show 
What I'm trying to conceal 
If I trust in you, would you let me down 
Would you laugh at me 
If I said I care for you 
Could you feel the same way too 
I wanna know 

I have no friends, no one to see 
And I am never invited 
Now I am here, talking to you 
No wonder I get excited 

Your smile, and the sound of your voice 
And the way you see through me 
Got a feeling, you give me no choice 
But it means a lot to me 
So I wanna know 



+++++++++++
| Raileff |
+++++++++++
less
plus
Add to Songbook Print Version How to play lesson Submit videolesson
Click the best TAGS for this song:
None of them
Contributor: momorom_ Correct

If you can not find the chords or tabs you want, look at our partner E-chords. If you are a premium member, you have total access to our video lessons.

If you find a wrong Bad To Me from ABBA, click the correct button above.

login/signup
my songbooks
my recent views
my submits