S ABBA

When All Is Said And Done tab

ABBA

Album:More Abba Gold

Year:1996

tools Ultimate Tabs

Start AutoScroll Font Size Down Font Size Up

Find us on Facebook

chords
tabs
bass
ukulele keyboards
drums
flute
harmonica
guitar pro
video
Ultimate-Tabs

When All Is Said And Done

Intro:                                               E

-------0------0------0-----0-----0-----0-------0--|-------------|
-----0------0------0-----0-----0-----0-------0----|-------------|
-4/9------8-----6------4-----2-----4-----9--------|------1-2-1--|
--------------------------------------------------|----2--------|
-2/7------6-----4------2-----0-----2-----7-7------|--2----------|
--------------------------------------------------|-------------|

-------0------0------0-----0-----0-----0-------0--|
-----0------0------0-----0-----0-----0-------0----|
-4/9------8-----6------4-----2-----4-----9--------|
--------------------------------------------------|
-2/7------6-----4------2-----0-----2-----7-7------|
--------------------------------------------------|

E       Esus4/B  Em6/C#
 ^  \/ ^
-0--0--0---0-----0---|
-0--0--0---0-----0---|
-1--1--1---2-----2---|
-2--2--2---2-----4---|
-2--2--2---2-----0---|
-0--0--0---0---------|

E           A                  B                 E
Heres to us one more toast and then well pay the bill
E           A              B               E
Deep inside both of us can feel the autumn chill
E                 B
Birds of passage, you and me
   A             E
We fly instinctively
E                A            B                    E
When the summers over and the dark clouds hide the sun

-----------|
-----------|
-----1-2-1-|
---2-------|
-2---------|
-----------|

E               A                B               E
Neither you nor Im to blame when all is said and done

E        Esus4/B Em6/C#
-0--0--0---0-----0---|
-0--0--0---0-----0---|
-1--1--1---2-----2---|
-2--2--2---2-----4---|
-2--2--2---2-----0---|
-0--0--0---0---------|

It's been there in my dreams the scene i see unfold
Two at last flesh and blood to cherish and hold
Jealous fools will suffer yes i know and i confess
Once i lost my way when something good had just begun
Lesson learned its history all is said and done

In our lives we have walked some strange and lonely treks
Slightly worn but dignified and not too old for sex
Clear-headed and open-eyed
With nothing left untried
Standing calmly at the crossroads no desire to run
There's no hurry any more when all is said and done

Standing calmly at the crossroads no desire to run
There's no hurry any more when all is said and done
less
plus
Add to Songbook Print Version How to play lesson Submit videolesson
Click the best TAGS for this song:
None of them
Contributor: Lineneto Correct

If you can not find the chords or tabs you want, look at our partner E-chords. If you are a premium member, you have total access to our video lessons.

If you find a wrong Bad To Me from ABBA, click the correct button above.

login/signup
my songbooks
my recent views
my submits