AC/DC

bigballs tab

AC/DC

tools Ultimate Tabs

Start AutoScroll Font Size Down Font Size Up

Find us on Facebook

chords
tabs
bass
ukulele
keyboards
drums
flute
harmonica
guitar pro
video
Ultimate-Tabs

bigballs

----------------------------|-----------------------------3-0-----------------
------------3-3-3-----------|---------------------------------3-0-------------
------------2-2-2--------2-2|-2----------------------------------2b4p0--------
-2----------0-0-0--------2-2|-2-----------------------------------------------
-2-----------------------0-0|-0-----------------------------------------------
-0--------------------------|-------------------------------------------------
                                                                              

----------------------------|-------------------------------------------------
------------3-3-3-----------|-------------------------------------------------
------------2-2-2--------2-2|-2-----------------------------------------------
-2----------0-0-0--------2-2|-2-----------------------------------------------
-2-----------------------0-0|-0-----------------------------------------------
-0--------------------------|----------7-4-----7-5-----7-6----7-7\------------
 Play this 3 times 
less
plus
Add to Songbook Print Version How to play lesson Submit videolesson
Click the best TAGS for this song:
None of them
Contributor: plie6225 Correct

If you can not find the chords or tabs you want, look at our partner E-chords. If you are a premium member, you have total access to our video lessons.

If you find a wrong Bad To Me from AC/DC, click the correct button above.

login/signup
my songbooks
my recent views
my submits