AC/DC

Girls Got Rhythm tab

AC/DC

Album:Highway to Hell

Year:1979

tools Ultimate Tabs

Start AutoScroll Font Size Down Font Size Up

Find us on Facebook

chords
tabs
bass
ukulele
keyboards
drums
flute
harmonica
guitar pro
video
Ultimate-Tabs

Girls Got Rhythm

Riff inicial (que se segue pela música inteira, exceto o Refrão): 
 
Cifrada por Leonardo Cambraia Coimbra Ribeiro. Críticas e/ou sugestões: [email protected] 
 
    D       C 
 
e-------|-------|-----------------------|           D e C são Power  
B-------|-------|-----------------------|            Chords. A tabla- 
G---7---|---5---|-----------------------|           tura ilustra isso. 
D---7---|---5---|-----------------------|             Depois há uma  
A---5---|---3---|-----------------------|             pequena frase. 
E-------|-------|--0--2--5--5--2--5--2--|             Ouça a música. 
 
 
Pré-refrão: 
 
    B  B   A   B   A  C    C  B  A  B  B 
e----------------------------------------| 
B----------------------------------------| 
G----------------------------------------| 
D---9--9---7---9---7--10--10--9--7--9--9-| 
A---9--9---7---9---7--10--10--9--7--9--9-| 
E---7--7---5---7---5--8---8---7--5--7--7-| 
 
Refrão:  
Repete-se o acorde de A maior.  
 
Letra: 
 I've been around the world  
I've seen a million girls  
Ain't one of them got  
What my lady she's got  
She steals the spotlight  
Knocks me of my feet  
She's enough to start a  
landslide  
Just walking down the street  
Wearing dresses so tight  
And looking dynamite  
Enough to blow me out  
No doubt about it can't live  
without it  
 
{REFRÃO}  
The girl's got the rhythm  
The girl's got the rhythm  
She's got the backseat  
rhythm  
The girl's got the rhythm  
 
She's like a lethal brand  
Too much for any man  
She gives me first degree  
She really satisfies me  
Love me till I'm legless  
Aching and sore  
Enough to stop a freight  
train  
Or start the Third World War  
You know I'm losin' sleep  
I'm in too deep  
And my body needs love  
No doubt about it can't live  
without it  
 
{REFRÃO}  
 
You know she moves like sin  
And when she lets me in  
It's like liquid love  
No doubt about it can't live  
without it  
 
{REFRÃO}  
 
You know she really got the  
rhythm  
She's got the backseat  
rhythm  
Rock 'n' roll rhythm  
The girl's got the rhythm 
 
 
_______________________________________________________ 
Contribuição: Leonardo Cambraia Coimbra Ribeiro([email protected]) 
less
plus
Add to Songbook Print Version How to play lesson Submit videolesson
Click the best TAGS for this song:
None of them
Contributor: gwynrmt3 Correct

If you can not find the chords or tabs you want, look at our partner E-chords. If you are a premium member, you have total access to our video lessons.

If you find a wrong Bad To Me from AC/DC, click the correct button above.

login/signup
my songbooks
my recent views
my submits