AC/DC

Sin City tab

AC/DC

Album:Live

Year:1992

tools Ultimate Tabs

Start AutoScroll Font Size Down Font Size Up

Find us on Facebook

chords
tabs
bass
ukulele
keyboards
drums
flute
harmonica
guitar pro
video
Ultimate-Tabs

Sin City

E--------------------------|---------------------------- 
B--------------------------|---------------------------- 
G--------------------------|-----4--7------------------- 
D--------------------------|--2--4--7--7---------------- 
A--------2-5-0-2-----------|--2--2--5--7---------------- 
E---3-5----------0---------|--0--------5---------------- 
 
 
E--------------------------|---------------------------- 
B--------------------------|---------------------------- 
G------4--7----------------|-----4--7------------------- 
D---2--4--7--7--7--5--2----|--2--4--7------------------- 
A---2--2--5--7--7--5--2----|--2--2--5------------------- 
E---0--------5--5--3--0----|--0------------------------- 
    diamonds and dust.... 
                                                                        
E------------------------------------------------------- 
B------------------------------------------------------- 
G------4--7-------------------------------4------------- 
D---2--4--7--7--7--5--7-------------------4------------- 
A---2--2--5--7--7--5--7-------------------2------------- 
E---0--------5--5--3--5--------------------------------- 
                I got a burnin' feeling...it's a yearnin' 
 
...ladders and snakes...(essa parte fica só o baixo) 
 
Final: 
(depois de um tempo em que D fica soando...) 
E------------------------------------------------------- 
B------------------------------------------------------- 
G--------4--7-----4------------------------------------- 
D--5--7--4--7--7--4--2---------------------------------- 
A--5--7--2--5--7--2--2---------------------------------- 
E--3--5--------5-----0---------------------------------- 
 
Sin City 
 
diamonds and dust 
poor man last 
rich man first 
Lamborghini's, caviar 
dry martini's, Shangrila 
I got a burnin' feeling 
deep inside of me 
it's a yearnin' 
but I'm gonna set it free 
in goin' in 
to sin city 
I'm gonna win 
in sin city 
where the lights are bright 
do the town tonight 
I'm goin' win 
in sin city 
let me roll ya baby 
 
ladders and snakes 
ladders give 
snakes take 
rich man poor man 
beggar man thief 
you ain't got a hope in hell 
that's my belief 
Fingers Freddy, Diamond Jim 
they're getting ready 
look out I'm coming in 
so spin that wheel 
cut that pack 
and roll them loaded dice 
bring on the dancin' girls and put the Champaign on ice 
in goin' in 
to sin city 
I'm gonna win 
in sin city 
where the lights are bright 
do the town tonight 
I'm goin' in 
to sin city 
 
 
_______________________________________________________ 
Contribuição: Diogo Valmorbida([email protected]) 
 
less
plus
Add to Songbook Print Version How to play lesson Submit videolesson
Click the best TAGS for this song:
None of them
Contributor: 1597luca Correct

If you can not find the chords or tabs you want, look at our partner E-chords. If you are a premium member, you have total access to our video lessons.

If you find a wrong Bad To Me from AC/DC, click the correct button above.

login/signup
my songbooks
my recent views
my submits