AC/DC

Whole Lotta Rosie tab

AC/DC

Album:If You Want Blood You've Got It

Year:1978

tools Ultimate Tabs

Start AutoScroll Font Size Down Font Size Up

Find us on Facebook

chords
tabs
bass
ukulele
keyboards
drums
flute
harmonica
guitar pro
video
Ultimate-Tabs

Whole Lotta Rosie

  Intro:
E|-------------------------|------------------|-------------------------|
B|-------------------------|------------------|-------------------------|
G|-------------------------|------------------|-------------------------|
D|----2--5--2--7-----5--2--|------------------|----2--5--2--7-----5--2--|
A|----0--3--0--5--0--3--0--|------------------|----0--3--0--5--0--3--0--|
E|-------------------------|------------------|-------------------------|
 to verse:
|-------------------------|-------------------------|-------------------------|
|-------------------------|-------------------------|-------------------------|
|-------------------------|----2--------2--------2--|----------------------2--|
|----2--5--2--7-----5--2--|----2--2--2--2--2--2--2--|----2--2--2--2--2--2--2--|
|----0--3--0--5--0--3--0--|----0--0--0--0--0--0--0--|----0--3--0--5--0--3--0--|
|-------------------------|-------------------------|-------------------------|

|-------------------------|-------------------------|-------------------------|
|-------------------------|-------------------------|-------------------------|
|----2--------2--------2--|----------------------2--|----2--------2--------2--|
|----2--2--2--2--2--2--2--|----2--2--2--2--2--2--2--|----2--2--2--2--2--2--2--|
|----0--0--0--0--0--0--0--|----0--3--0--5--0--3--0--|----0--0--0--0--0--0--0--|
|-------------------------|-------------------------|-------------------------|

|-------------------------|-------------------------|-------------------------|
|-------------------------|-------------------------|-------------------------|
|----------------------2--|----2--------2--------2--|----------------------2--|
|----2--2--2--2--2--2--2--|----2--2--2--2--2--2--2--|----2--2--2--2--2--2--2--|
|----0--3--0--5--0--3--0--|----0--0--0--0--0--0--0--|----0--3--0--5--0--3--0--|
|-------------------------|-------------------------|-------------------------|
    never had a woman...
|-------------------------|-------------------------|-------------------------|
|-------------------------|-------------------------|-------------------------|
|----2--------2--------2--|----------------------2--|----2--------2--------2--|
|----2--2--2--2--2--2--2--|----2--2--2--2--2--2--2--|----2--2--2--2--2--2--2--|
|----0--0--0--0--0--0--0--|----0--3--0--5--0--3--0--|----0--0--0--0--0--0--0--|
|-------------------------|-------------------------|-------------------------|

|-------------------------|-------------------------|-------------------------|
|-------------------------|-------------------------|-------------------------|
|----------------------2--|----2--------2--------2--|----------------------2--|
|----2--2--2--2--2--2--2--|----2--2--2--2--2--2--2--|----2--2--2--2--2--2--2--|
|----0--3--0--5--0--3--0--|----0--0--0--0--0--0--0--|----0--3--0--5--0--3--0--|
|-------------------------|-------------------------|-------------------------|
                                                      all through...
|-------------------------|-------------------------|-------------------------|
|-------------------------|-------------------------|-------------------------|
|----2--------2--------2--|----------------------2--|----2--------2--------2--|
|----2--2--2--2--2--2--2--|----2--2--2--2--2--2--2--|----2--2--2--2--2--2--2--|
|----0--0--0--0--0--0--0--|----0--3--0--5--0--3--0--|----0--0--0--0--0--0--0--|
|-------------------------|-------------------------|-------------------------|

|-------------------------|-------------------------|-------------------------|
|-------------------------|-------------------------|-------------------------|
|----------------------2--|----2--------2--------2--|----------------------2--|
|----2--2--2--2--2--2--2--|----2--2--2--2--2--2--2--|----2--2--2--2--2--2--2--|
|----0--3--0--5--0--3--0--|----0--0--0--0--0--0--0--|----0--3--0--5--0--3--0--|
|-------------------------|-------------------------|-------------------------|

|-------------------------|-------------------------|-------------------------|
|-------------------------|-------------------------|-------------------------|
|----2--------2--------2--|----------------------2--|----2--------2--------2--|
|----2--2--2--2--2--2--2--|----2--2--2--2--2--2--2--|----2--2--2--2--2--2--2--|
|----0--0--0--0--0--0--0--|----0--3--0--5--0--3--0--|----0--0--0--0--0--0--0--|
|-------------------------|-------------------------|-------------------------|
                 whole lotta woman...                    whole lotta
|-------------------------|---------------------|------------------|
|-------------------------|---------------------|------------------|
|-------2--2--2--2--2--2--|---------------------|------------------|
|----2--2--2--2--2--2--2--|--3------3------3----|------------------|
|----0-----0-----0-----0--|--3------3------3----|------------------|
|-------------------------|--1------1------1----|------------------|
   woman...                     whole lotta rosie...
|---------------------|------------------|---------------------|
|--3------3------3----|------------------|------------------3--|
|--2------2------2----|------------------|--2------------2--0--|
|--0------0------0----|------------------|--2------------2--0--|
|---------------------|------------------|--0------------0-----|
|---------------------|------------------|------------------3--|
                     rosie...
|------------------|---------------------|------------------|
|------------------|------------------3--|------------------|
|------------------|--2------------2--0--|------------------|
|------------------|--2------------2--0--|------------------|
|------------------|--0------------0-----|------------------|
|------------------|------------------3--|------------------|
  rosie...
|---------------------|------------------|---------------------|
|------------------3--|------------------|---------------------|
|--2------------2--0--|------------------|---------------------|
|--2------------2--0--|------------------|---------------------|
|--0------------0-----|------------------|--5------5------5----|
|------------------3--|------------------|--3------2------3----|
                        to verse:
|---------------------|--------------------------|
|---------------------|--------------------------|
|---------------------|--2--2--------2--------2--|
|---------------------|--2--2--2--2--2--2--2--2--|
|----5------5----5----|--0--0--0--0--0--0--0--0--|
|----2------3----3----|--------------------------|



_______________________________________________________
Contribuição: Taino Vieira([email protected]) 
less
plus
Add to Songbook Print Version How to play lesson Submit videolesson
Click the best TAGS for this song:
None of them
Contributor: roxyRoxy Correct

If you can not find the chords or tabs you want, look at our partner E-chords. If you are a premium member, you have total access to our video lessons.

If you find a wrong Bad To Me from AC/DC, click the correct button above.

login/signup
my songbooks
my recent views
my submits