Acústicos & Valvulados

Fim De Tarde Com Você bass

Acústicos & Valvulados

tools Ultimate Tabs

Start AutoScroll Font Size Down Font Size Up

Find us on Facebook

chords
tabs
bass
ukulele keyboards
drums
flute
harmonica
guitar pro
video
Ultimate-Tabs

Fim De Tarde Com Você

Afinação:Mi ou Ré#/E or D# não sei ao certo,mas tanto faz!            |
=======================================================================

Intro:
       G             D/F#        A           D
G|-------------|-----------|------------|----------|
D|----------5-5|-----------|------------|----------|----------1x
A|-----------5-|-----------|---------2-4|-5-5-5-4-2|
E|-----3-3-3---|2-2-2-0-2-4|-5-5-5--5---|----------|

Verso1:

       G             D/F#        A           D
G|-------------|-----------|------------|----------|
D|----------5-5|-----------|------------|----------|----------2x
A|-----------5-|-----------|---------2-4|-5-5-5-4-2|
E|-----3-3-3---|2-2-2-0-2-4|-5-5-5--5---|----------|

Refrão:
       A      D      G  F#    Em        Cm        G        Cm
G|--------|--------|---|---|--------|---------|---------|--------|
D|--------|--------|---|---|--------|---------|---------|--------|
A|-0-0-0-0|-5-5-5-5|---|---|--------|-3-3-3-3-|---------|3-3-3-3-|
E|--------|--------|-3-|-2-|-0-0-0-0|---------|-3-3-3-3-|--------|
    G           A        D
G|--------|---------|----------|
D|--------|---------|----------|
A|--------|-0-0-0-0-|-5-5-5-5-5|
E|-3-3-3-3|---------|----------|
A-HA...:

       G             D/F#        A           D
G|-------------|-----------|------------|----------|
D|----------5-5|-----------|------------|----------|----------1x
A|-----------5-|-----------|---------2-4|-5-5-5-4-2|
E|-----3-3-3---|2-2-2-0-2-4|-5-5-5--5---|----------|

Verso2:

       G             D/F#        A           D
G|-------------|-----------|------------|----------|
D|----------5-5|-----------|------------|----------|----------2x
A|-----------5-|-----------|---------2-4|-5-5-5-4-2|
E|-----3-3-3---|2-2-2-0-2-4|-5-5-5--5---|----------|

Refrão:

       A      D      G  F#    Em        Cm        G        Cm
G|--------|--------|---|---|--------|---------|---------|--------|
D|--------|--------|---|---|--------|---------|---------|--------|
A|-0-0-0-0|-5-5-5-5|---|---|--------|-3-3-3-3-|---------|3-3-3-3-|
E|--------|--------|-3-|-2-|-0-0-0-0|---------|-3-3-3-3-|--------|
    G           A        D
G|--------|---------|----------|
D|--------|---------|----------|
A|--------|-0-0-0-0-|-5-5-5-5-5|
E|-3-3-3-3|---------|----------|

SOLO:

       G             D/F#        A           D
G|-------------|-----------|------------|----------|
D|----------5-5|-----------|------------|----------|----------2x
A|-----------5-|-----------|---------2-4|-5-5-5-4-2|
E|-----3-3-3---|2-2-2-0-2-4|-5-5-5--5---|----------|

       A      D      G  F#    Em        Cm        G        Cm
G|--------|--------|---|---|--------|---------|---------|--------|
D|--------|--------|---|---|--------|---------|---------|--------|
A|-0-0-0-0|-5-5-5-5|---|---|--------|-3-3-3-3-|---------|3-3-3-3-|
E|--------|--------|-3-|-2-|-0-0-0-0|---------|-3-3-3-3-|--------|
    G           A        D
G|--------|---------|----------|
D|--------|---------|----------|
A|--------|-0-0-0-0-|-5-5-5-5-5|
E|-3-3-3-3|---------|----------|

Final:

       A      D      G  F#    Em        Cm        G        Cm
G|--------|--------|---|---|--------|---------|---------|--------|
D|--------|--------|---|---|--------|---------|---------|--------|
A|-0-0-0-0|-5-5-5-5|---|---|--------|-3-3-3-3-|---------|3-3-3-3-|
E|--------|--------|-3-|-2-|-0-0-0-0|---------|-3-3-3-3-|--------|
    G           A        D
G|--------|---------|----------|
D|--------|---------|----------|
A|--------|-0-0-0-0-|-5-5-5-5-5|
E|-3-3-3-3|---------|----------|

G|---|---|--------|---------|----------|
D|---|---|--------|---------|----------|
A|---|---|--------|-0-0-0-0-|-5-5-5-5-5|----------3x
E|-3-|-2-|-0-0-0-0|---------|----------|

A-HA...:

     A      D      G  F#    Em        Cm        G        Cm        G
G|--------|--------|---|---|--------|---------|---------|--------|---|
D|--------|--------|---|---|--------|---------|---------|--------|---|
A|-0-0-0-0|-5-5-5-5|---|---|--------|-3-3-3-3-|---------|3-3-3-3-|---|
E|--------|--------|-3-|-2-|-0-0-0-0|---------|-3-3-3-3-|--------|-3-|

			
                           (Paulo James)3:49
  Canto1|
	|Nunca mais abro a janela do meu quarto
	|nun dia cinza
	|Sei que o sol fica dormindo atrás da nuvens
	|não ilumina
  Refrão|
	|Nem penso muito no que pode acontecer
	|enquanto arrumo todas as coisas que eu sinto
	|o meu passado e o meu destino 
	|E espero que o fim da tarde veha com você
	|A-HA A-HA A-HA
 Canto 2|
	|Resisto mas escuto bem o som dos carros
	|na avenida
	|Quero mais é descansa com meu cigarro 
	|no andar de cima
  Refrão|
	|Nem penso muito no que pode acontecer
	|enquanto arrumo todas as coisas que eu sinto
	|o meu passado e o meu destino
	|E espero que o fim da tarde venha com você
 Canto 3|
	|Sem pressa risco num papel uns poucos traços
	|pra despedida
	|Do que me leva a cantar assim tão baixo
	|e me alucina
  Refrão|
	|Nem penso muito no que pode acontecer      | 
	|enquanto arrumo todas as coisa que eu sinto|
	|o meu passado e o meu destino              |---------2X
	|E espero que o fim da tarde venha com você |
        |A-HA A-HA A-HA                             | 
less
plus
Add to Songbook Print Version How to play lesson Submit videolesson
Click the best TAGS for this song:
None of them
Contributor: podifere Correct

If you can not find the chords or tabs you want, look at our partner E-chords. If you are a premium member, you have total access to our video lessons.

If you find a wrong Bad To Me from Acústicos & Valvulados, click the correct button above.

login/signup
my songbooks
my recent views
my submits