tools Ultimate Tabs

Start AutoScroll Font Size Down Font Size Up

Find us on Facebook

chords
tabs
bass
ukulele keyboards
drums
flute
harmonica
guitar pro
video
Ultimate-Tabs

Botar Um

--------------|--------------|
--------------|--------------|
----------7-5-|----------7-5-|
3-5--5-5------|3-5--5-5------|
--------------|---------------------|
--------------|---------------------|
----------7-5-|0-0--3-3--0-0--3-2-0-|
3-5--5-5------|---------------------|
less
plus
Add to Songbook Print Version How to play lesson Submit videolesson
Click the best TAGS for this song:
None of them
Contributor: stinrafi Correct

If you can not find the chords or tabs you want, look at our partner E-chords. If you are a premium member, you have total access to our video lessons.

If you find a wrong Bad To Me from Adão Negro, click the correct button above.

login/signup
my songbooks
my recent views
my submits