S Adele

I Found A Boy tab

Adele

tools Ultimate Tabs

Start AutoScroll Font Size Down Font Size Up

Find us on Facebook

chords
tabs
bass
ukulele keyboards
drums
flute
harmonica
guitar pro
video
Ultimate-Tabs

I Found A Boy

-------------------------------------------------------------------------------
                                                  I Found A Boy - Adele
-------------------------------------------------------------------------------
Tabbed by: Cara aka Akumacy
Email: [email protected]

Tuning: Standard

So, this is pretty easy to play. You can play it as chords, or pick it.
I just took the chords and turned them into picking.
I tried to add the chords where you're supposed to strum or pick them along with the 
lyrics, since I sometimes have a hard time getting the tempo and rhythm right, if the 
lyrics aren't there to help.
Fairly easy pattern. I am quite new to all of the tabbing (this is actually the first 
one I did that I actually uploaded since I was never really satisfied with the previous 
results :)).
I don't play guitar all too long either, so this might not be entirely right, but I 
spent a LOT of time on this and did my very best!
Enjoy,
Cara


Intro:
      A     A     E     E
e|--------------------------|
B|----2-----2---------------|
G|---2-2---2-2----1-----1---|
D|--2---2-2---2--2-2---2-2--|
A|-0-----0------2---2-2---2-|
E|-------------0-----0------|

Verse 1:

         A           E
e|--------------------------|
B|----2-----2---------------|
G|---2-2---2-2----1-----1---|    x4
D|--2---2-2---2--2-2---2-2--|
A|-0-----0------2---2-2---2-|
E|-------------0-----0------|

            A                     E
I thought I told you, he'd be home soon
               A                           E
Couldn't help myself, you're too good to be true.
                  A                          E
I fall short each time, every time he ain't here,
                           A                 E
You and your charm creep closer, closer in here.


        F#m          D         B7          E
e|----------------2-----2-----2-----2----------------|
B|---------------3-3---3-3---4-4---4-4---------------|
G|----2-----2---2---2-2---2-2---2-2---2----1-----1---|
D|---4-4---4-4-0-----0-----4-----4--------2-2---2-2--|
A|--4---4-4---4--------------------------2---2-2---2-|
E|-2-----2------------------------------0-----0------|


                     F#m                       D
Like a fool for fire I fall, with my pride and all.
                      B7
Like a bomb before explosion,
                 E
Ticking by your call.


         A           E          F#m       D     E
e|----------------------------------------2----------|
B|----2-----2----------------------------3-3---------|
G|---2-2---2-2----1-----1-----2-----2---2---2---1----|
D|--2---2-2---2--2-2---2-2---4-4---4-4-0-------2-2---|
A|-0-----0------2---2-2---2-4---4-4---4-------2---2--|
E|-------------0-----0-----2-----2-----------0-------|


            A                         E
You're the wiser one, disguised from greed,
               F#m                      D        E
And I'm just a child who belongs on her knees.


Chorus:

       D        C#        F#m        D       C#     F#m             D
e|----2-----------------------------2-----------------------2-----2-----2----------|
B|---3-3------6--------------------3-3------6--------------3-3---3-3---3-3---------|
G|--2---2-2--6-6------2-----2-----2---2-2--6-6------2-----2---2-2---2-2---2-2------|
D|-0-----0--6---6-6--4-4---4-4---0-----0--6---6-6--4-4---0-----0-----0-----0-------|
A|---------4-----4--4---4-4---4-4--------4-----4--4---4-4--------------------------|
E|-----------------2-----2-----2-----------------2-----2---------------------------|
                                                      Pause: (...dooooooooooooown)

    D                 C#
But I found a boy who I love more,
     F#m
Than I ever did you before,
    D                 C#
So stand beside the river I cried,
    F#m           D
And let yourself down.



         A       E
e|-----------------------|
B|-------2---------------|
G|------2-2------1-------|
D|-----2---2-2--2-2------|
A|----0-----0--2---2-----|
E|------------0-----0----|

                                           A         E
Look how you want me now that I don't need you.


Verse 2:

         A           E          F#m          D
e|----------------------------------------2-----2---|
B|----2-----2----------------------------3-3---3-3--|
G|---2-2---2-2----1-----1-----2-----2---2---2-2---2-|
D|--2---2-2---2--2-2---2-2---4-4---4-4-0-----0------|
A|-0-----0------2---2-2---2-4---4-4---4-------------|
E|-------------0-----0-----2-----2------------------|

          A                                  E
So, you thought that I would crumble to my knees
               F#m                          D
At the first sight of you, crawling back to me


         E          F#m          D           E           E
e|----------------------------2-----2----------------------------|
B|---------------------------3-3---3-3---------------------------|
G|----1-----1-----2-----2---2---2-2---2---1-----1-----1-----1----|
D|---2-2---2-2---4-4---4-4-0-----0-------2-2---2-2---2-2---2-2---|
A|--2---2-2---2-4---4-4---4-------------2---2-2---2-2---2-2---2--|
E|-0-----0-----2-----2-----------------0-----0-----0-----0-----0-|

    E                 F#m
To whisper 'will you leave your man?'
                       D                    E            A
Cause you sweared that this time you can stand by me.
                 E
I won't stand by you.


Chorus:

       D        C#        F#m        D       C#     F#m             D
e|----2-----------------------------2-----------------------2-----2-----2----------|
B|---3-3------6--------------------3-3------6--------------3-3---3-3---3-3---------|
G|--2---2-2--6-6------2-----2-----2---2-2--6-6------2-----2---2-2---2-2---2-2------|
D|-0-----0--6---6-6--4-4---4-4---0-----0--6---6-6--4-4---0-----0-----0-----0-------|
A|---------4-----4--4---4-4---4-4--------4-----4--4---4-4--------------------------|
E|-----------------2-----2-----2-----------------2-----2---------------------------|
                                                      Pause: (...dooooooooooooown)

    D                 C#
But I found a boy who I love more,
     F#m
Than I ever did you before,
    D                     C#
So stand beside the river I cried,
    F#m            D
And let yourself down.


Bridge:

         F             Am             E              A
e|--------------------------------------------------------------------|
B|-------------------1-----1----------------------2-----2-------------|
G|----2-----2-------2-2---2-2------1-----1-------2-2---2-2------------|
D|---3-3---3-3-----2---2-2---2-2--2-2---2-2-----2---2-2---2-2---------|
A|--3---3-3---3-3-0-----0-----0--2---2-2---2-2-0-----0-----0----------|
E|-1-----1-----1----------------0-----0-----0-------------------------|

                                                                                     F
Look how you want me now that I don't need you.
                            Am
I ain't yours for no taking,
                    E
You must be mistaken
                                       A
I could never look in your eyes, and settle for wrong

And ignore the right


Chorus:

       D        C#        F#m        D       C#     F#m             D
e|----2-----------------------------2-----------------------2-----2-----2----------|
B|---3-3------6--------------------3-3------6--------------3-3---3-3---3-3---------|
G|--2---2-2--6-6------2-----2-----2---2-2--6-6------2-----2---2-2---2-2---2-2------|
D|-0-----0--6---6-6--4-4---4-4---0-----0--6---6-6--4-4---0-----0-----0-----0-------|
A|---------4-----4--4---4-4---4-4--------4-----4--4---4-4--------------------------|
E|-----------------2-----2-----2-----------------2-----2---------------------------|
                                                      Pause: (...dooooooooooooown)

    D                   C#
But I found a boy who loves me more,
     F#m
Than you ever did before,
      D                       C#
So stand beside the river you’ll cry,
    F#m           D
And let yourself down.

      A       E          A          A
e|----------------------------------0--------|
B|----2----------------2-----2------2--------|
G|---2-2------1-------2-2---2-2-----2--------|
D|--2---2-2--2-2-----2---2-2---2----2--------|
A|-0-----0--2---2-2-0-----0---------0--------|
E|---------0-----0------------------0--------|

              A               E             A
Look how you want me now that I don't need you. (Let the last chord ring)


And that's it! not all too hard :)
Let me know what you think, good luck and have fun!
less
plus
Add to Songbook Print Version How to play lesson Submit videolesson
Click the best TAGS for this song:
None of them
Contributor: rousjmw6 Correct

If you can not find the chords or tabs you want, look at our partner E-chords. If you are a premium member, you have total access to our video lessons.

If you find a wrong Bad To Me from Adele, click the correct button above.

login/signup
my songbooks
my recent views
my submits