Adele

Rolling In The Deep chords

Adele

Album:21

Year:2011

tools Ultimate Tabs

Start AutoScroll Font Size Down Font Size Up

Find us on Facebook

chords
tabs bass ukulele keyboards
drums
flute
harmonica
guitar pro video
Ultimate-Tabs

Rolling In The Deep

Intro: Cm (2x) 

Cm                         Gm 
  Theres a fire starting in my heart   
        Bb                              Gm             Bb   
Reaching a fever pitch, its bringing me out the dark   
Cm                        Gm   
 Finally, I can see you crystal clear   
 Bb                                 Cm               Bb   
Go ahead and sell me out and I'll lay your ship bare   
 Cm                             Gm   
See how  I'll leave with every piece of you   
 Bb                        Gm                 Bb   
Don't underestimate the things that I will do   
Cm                         Gm   
   Theres a fire starting in my heart   
        Bb                              Gm             Bb   
Reaching a fever pitch, it's bringing me out the dark   

Ab            Bb                Gm   
  The scars of your love remind me of us   
               Ab   
They keep me thinking that we almost had it all   
              Bb                         Gm   
The scars of your love, they leave me breathless   
              G7   
I can't help feeling   

  
                     Cm   Bb   
We could have had it all   
                Ab   
Rolling in the deep   
     Bb              Cm      Bb   
You had my heart inside of your hand   
           Ab   
And you played it   
        Bb   
To the beat   

Cm             Gm   
Baby, I have no story to be told   
Bb                            Gm                         Bb   
But Ive heard one of you and Im gonna make your head burn   
Cm             Gm   
Think of me in the depths of your despair   
Bb                          Gm                    Bb   
Making a home down there, as mine sure won't be shared   

Ab             Bb                Gm   
  The scars of your love remind me of us   
               Ab   
They keep me thinking that we almost had it all   
              Bb                         Gm   
The scars of your love, they leave me breathless   
              G7   
I can't help feeling   

  
                     Cm   Bb   
We could have had it all   
                Ab   
Rolling in the deep   
     Bb              Cm      Bb   
You had my heart inside of your hand   
           Ab   
And you played it   
        Bb   
To the beat  (2x)   
 

 
e|--8-----------8--11-10-8--------------------------------| 
B|--11b13-----9------------11p8---------------------------| 
G|---------10-------------------11--10--8---------------8-| 
D|------------------------------11--10--8--10p8-10p8-10---| 
A|--------------------------------------------------------| 
E|--------------------------------------------------------| 

e|--------------------------------------------------11-13p11-| 
B|-------------------------------------------11-13-----------| 
G|-----------------------------------8-10/12-----------------| 
D|-10p8----------8/10-----------8-10-------------------------| 
A|------10\8-6-6---------6-8/10------------------------------| 
E|---------------------8-------------------------------------| 

e|---------------------------------| 
B|--13p11--------------------------| 
G|--------13\10-8-8----------------| 
D|------------------10p8-----------| 
A|-----------------------10\8-6----| 
E|------------------------------8--| 

Cm Gm Throw your soul through every open door Bb Gm Count your blessings to find what you look for Bb Cm Turn my sorrow into treasured gold Gm Bb Cm You pay me back in kind and reap just what you sow Bb Ab We could have had it all Ab Bb Cm Bb We could have had it all Ab It all, it all it all Cm Bb We could have had it all Ab Rolling in the deep Bb Cm Bb You had my heart inside of your hand Ab And you played it Bb To the beat Cm Bb We could have had it all Ab Rolling in the deep Bb Cm Bb You had my heart inside of your hand Ab And you played it (3x) Bb Cm To the beat
less
plus
Add to Songbook Print Version How to play lesson Submit videolesson
Click the best TAGS for this song:
None of them
Contributor: paulPaul Correct

If you can not find the chords or tabs you want, look at our partner E-chords. If you are a premium member, you have total access to our video lessons.

If you find a wrong Bad To Me from Adele, click the correct button above.

login/signup
my songbooks
my recent views
my submits