S Adele

Rolling In The Deep tab

Adele

Album:21

Year:2011

tools Ultimate Tabs

Start AutoScroll Font Size Down Font Size Up

Find us on Facebook

Ultimate-Tabs

Rolling In The Deep

Tuning: Standard

| .  palm-mute
| b  bend
| ~  let ring

All guitars tuned EADGBe
 {Gtr 1 - acoustic
 {Gtr 2 - electric


Pretty easy song, but no one had tabbed it out yet so here it is. I will say though that 
the timing is a little weird. Just play along with the song to get the hang of it.

Intro Those are 10s.
  {Gtr 1
    Cm
e|------------------------------------|
B|------------------------------------|
G|------------------------------------|
D|------------------------------------|
A|--10101010101010101010101010101010--|
E|--8-8-8-8-8-8-8-8-8-8-8-8-8-8-8-8---|
    ................................


Verse Repeat this as necessary. Again, just 10s here, no ones and zeros.
  {Gtr 1
    Cm                 Gm       Bb       Gm   Bb
e|-------------------------------------------------|
B|-------------------------------------------------|
G|-------------------------------------------------|
D|-------------------------------------------------|
A|--1010101010101010-105555555-58888888-85555-888--|
E|--8-8-8-8-8-8-8-8--8-3333333-36666666-63333-666--|
    .............................................


Pre-Chorus The guitar pretty much cuts out here on the track. (The bass gets louder to 
make up for it.) The first part is most prominent, and follows the bass and the strum 
pattern of the verse. The second follows the piano.

 ~Part 1
  {Gtr 1
e|---------------------------------------|
B|---------------------------------------|
G|---------------------------------------|
D|---------------------------------------|
A|--66666666-88888888-55555555-66666666--|
E|--44444444-66666666-33333333-44444444--|
    ...................................

  {Gtr 1
e|---------------------------------------|
B|---------------------------------------|
G|--------------------------------33333--|
D|--------------------------------55555--|
A|--66666666-88888888-55555555-55555555--|
E|--44444444-66666666-33333333-333-------|
    ..............................

 ~Part 2
I posted the lyrics above the tablature to help show the timing for everything, but in 
the end you're going to need to play along with the song.

       The scars of your love remind me of us
    G#              Bb                  Gm
e|-------------------------------------------|
B|-------------------------------------------|
G|-------------------------------------------|
D|--6~--------------8~----------8-------5~---|
A|--6~--------------8~----------8-------5~---|
E|--4~--------------6~------------------3~---|

They keep me thinking that we almost had it all
             G#                             G#
e|----------------------------------------------|
B|----------------------------------------------|
G|----------------------------------------------|
D|-----------6~---------------------------8-6~--|
A|-----------6~---------------------------8-6~--|
E|-----------4~---------------------------6-4~--|

The scars of your love, they leave me breathless
             Bb                       Gm
e|----------------------------------------|
B|----------------------------------------|
G|----------------------------------------|
D|--6-------68~---------------------8-5~--|
A|--6-------68~---------------------8-5~--|
E|--4-------46~---------------------6-3~--|

I can't help feeling
             Gm
e|---------------------|
B|---------------------|
G|------3-------33333--|
D|-----------55555555--|
A|-----------55555555--|
E|---------------------|


Chorus Again, no guitar on the track. But you could strum this if you wanted to. 
Repeat as necessary.
    Cm        Bb        G#        G#   Bb
e|-------------------------------------------|
B|-------------------------------------------|
G|--55555555--33333333--55555555-------------|
D|--55555555--33333333--66666666--6666-8888--|
A|--33333333--11111111--66666666--6666-8888--|
E|--33333333--11111111--44444444--4444-6666--|

    Cm        Bb        G#        G#   Bb
e|-------------------------------------------|
B|-------------------------------------------|
G|--55555555--33333333-----------------------|
D|--55555555--33333333--66666666--6666-8888--|
A|--33333333--11111111--66666666--6666-8888--|
E|--33333333--11111111--44444444--4444-6666--|


You know the song.. just go to verse, pre-chorus, then this.

Chorus 2 Pretty much the same as the first chorus, but the order of the chords change 
at the end of it.
    Cm        Bb        G#        G#   Bb
e|-------------------------------------------|
B|-------------------------------------------|
G|--55555555--33333333--55555555-------------|
D|--55555555--33333333--66666666--6666-8888--|
A|--33333333--11111111--66666666--6666-8888--|
E|--33333333--11111111--44444444--4444-6666--|

    Cm        Bb        G#        G#   Bb
e|-------------------------------------------|
B|-------------------------------------------|
G|--55555555--33333333-----------------------|
D|--55555555--33333333--66666666--6666-8888--|
A|--33333333--11111111--66666666--6666-8888--|
E|--33333333--11111111--44444444--4444-6666--|

    G#        Bb        Cm        Bb
e|------------------------------------------|
B|------------------------------------------|
G|--55555555------------55555555--33333333--|
D|--66666666--88888888--55555555--33333333--|
A|--66666666--88888888--33333333--11111111--|
E|--44444444--66666666--33333333--11111111--|

    G#                 Bb
e|----------------------------------------|
B|----------------------------------------|
G|----------------------------------------|
D|--66666666-66666666--88888888-88888888--|
A|--66666666-66666666--88888888-88888888--|
E|--44444444-44444444--66666666-66666666--|


Bridge/Verse 3 The palm-muted part doesn't come in for this verse. Instead, there's 
some solo guitar that, for the most part, is incredibly hard to hear. I tabbed what I 
could accurately make out.

Throw your soul through every open door
e|---------------------|
B|---------------------|
G|---------------------|
D|---------------------|
A|---------------------|
E|---------------------|


Count your blessings to find what you look for
  {Gtr 2
e|-----------------------------------------|
B|---------------------------11b13---------|
G|---------------------------10b12---------|
D|-----------------------------------------|
A|-----------------------------------------|
E|-----------------------------------------|

Turn my sorrow into treasured gold
e|---------------------|
B|---------------------|
G|---------------------|
D|---------------------|
A|---------------------|
E|---------------------|

You pay me back in kind and reap just what you sow
  {Gtr 2
e|-----------------------------------------------------|
B|--------------------------4---6---8---11---13---13~--|
G|------------------------------------------------12~--|
D|-----------------------------------------------------|
A|-----------------------------------------------------|
E|-----------------------------------------------------|


After this the guitar cuts out altogether for a bit. Once the chorus picks up again, 
repeat the chords for the first chorus and end on this.

e|-------|
B|-------|
G|---5---|
D|---5---|
A|---3---|
E|-------|

That's it! God bless. :)
less
plus
Add to Songbook Print Version How to play lesson Submit videolesson
Click the best TAGS for this song:
None of them
Contributor: skiiAndr Correct

If you can not find the chords or tabs you want, look at our partner E-chords. If you are a premium member, you have total access to our video lessons.

If you find a wrong Bad To Me from Adele, click the correct button above.

login/signup
my songbooks
my recent views
my submits