Adele

Rumour Has It (acoustic) tab

Adele

tools Ultimate Tabs

Start AutoScroll Font Size Down Font Size Up

Find us on Facebook

chords
tabs
bass
ukulele
keyboards
drums
flute
harmonica
guitar pro
video
Ultimate-Tabs

Rumour Has It (acoustic)

Tabbed by: ChrisRGuitar 
E-mail: [email protected] 

This is a fingerstyle tab version of Adele's "Rumor Has It". If you want to hear how the 
tab sounds you can go to 
http://www.youtube.com/watch?v=9MGTFSTG-LE&feature=share&list=TL_6uzjT99F7U to see a  
video performance of this version of the song. 

I have created nearly 100 other similar fingerstyle arrangements of songs like this, 
that you can email me at the address above to receive them free of charge. :) Good luck  
& I 
hope you enjoy! 

Tuning: Dropped D (DADGBe) 

1   1   &   2   &   3   &   4   &    1   &   2   &   3   &   4   & 
e|----------------------1----------|---------------------1-----------| 
B|--3------------------------------|-3-------------------------------| 
G|---------------------------------|---------------------------------| 
D|---------------------------------|---------------------------------| 
A|---------------------------------|---------------------------------| 
D|--0-----------0-----------0------|-0-----------0-----------0-------| 

3   1   &   2   &   3   &   4   &    1   &   2   &   3   &   4   & 
e|---------------------------------|---------------------------------| 
B|--3-------------------3---1---3--|---------------------------------| 
G|---------------------------------|---------------------2---2---2---| 
D|---------------------------------|---------------------------------| 
A|---------------------------------|---------------------------------| 
D|--0-----------0-----------0------|-0-----------0-----------0-------| 

5   1   &   2   &   3   &   4   &    1   &   2   &   3   &   4   & 
e|------------------------------1--|---------------------------------| 
B|--3---3---3---1---3---1---3------|-1-------------------------------| 
G|---------------------------------|---------------------------------| 
D|---------------------------------|---------------------------------| 
A|---------------------------------|---------------------------------| 
D|--0-----------0-----------0------|-0-----------0-----------0-------| 

7   1   &   2   &   3   &   4   &    1   &   2   &   3   &   4   & 
e|---------------------------------|---------------------------------| 
B|--3---------------------------1--|-----3---------------------------| 
G|----------------------2---2------|---------------------------------| 
D|---------------------------------|---------------------------------| 
A|---------------------------------|---------------------------------| 
D|--0-----------0-----------0------|-0-----------0-----------0-------| 

9   1   &   2   &   3   &   4   &    1   &   2   &   3   &   4   & 
e|---------------------------------|---------------------------------| 
B|--3---3---3---1---3--------------|-1---3---1---3-------3-----------| 
G|----------------------2---2---2--|---------------------------------| 
D|---------------------------------|---------------------------------| 
A|---------------------------------|---------------------------------| 
D|--0-----------0-----------0------|-0-----------0-----------0-------| 

11  1   &   2   &   3   &   4   &    1   &   2   &   3   &   4   & 
e|--5---3-1-----------------1-----1|---------------------------------| 
B|----------3-----------3-----3----|---------------------------------| 
G|---------------------------------|-----------------------------2---| 
D|---------------------------------|---------------------------------| 
A|---------------------------------|---------------------------------| 
D|--0-----------0-----------0------|-0-----------0-----------0-------| 

13  1   &   2   &   3   &   4   &    1   &   2   &   3   &   4   & 
e|------------------------------1--|---------------------------------| 
B|--3---3---3---1---3---1---3------|-3-------------------------------| 
G|---------------------------------|-2-------------------------------| 
D|---------------------------------|-0-------------------------------| 
A|---------------------------------|-0-------------------------------| 
D|--0-----------0-----------0------|-0-------------------------------| 

15  1   &   2   &   3   &   4   &    1   &   2   &   3   &   4   & 
e|--1-------1-------1---1---1------|-1---1-------1-------------------| 
B|------------------------------3--|---------3-----------3---3---3---| 
G|---------------------------------|---------------------------------| 
D|---------------------------------|---------------------------------| 
A|---------------------------------|---------------------------------| 
D|--0-------0-------0-------0------|-0-------0-------0-------0-------| 

17  1   &   2   &   3   &   4   &    1   &   2   &   3   &   4   & 
e|---------------------------------|-5-------------------------------| 
B|--6---6-------6------------------|-----8---6-----------------------| 
G|----------7-----------7---7---7--|-------------7-------7---7---7---| 
D|---------------------------------|---------------------------------| 
A|---------------------------------|---------------------------------| 
D|--5-------5-------5-------5------|-5-------5-------5-------5-------| 

19  1   &   2   &   3   &   4   &    1   &   2   &   3   &   4   & 
e|----------1-------1-------1------|-1---1-------1-------------------| 
B|------------------------------3--|---------3-------------------3---| 
G|---------------------------------|---------------------------------| 
D|---------------------------------|---------------------------------| 
A|--1-------1-------1-------1------|-0-------0-------0-------0-------| 
D|---------------------------------|---------------------------------| 

21  1   &   2   &   3   &   4   &    1   &   2   &   3   &   4   & 
e|---------------------------------|-----------------3---3---1---1---| 
B|--6---6--------------------------|-----------------3---3---3---3---| 
G|----------7---7---5---5----------|-----0-----------2---2---2---2---| 
D|--------------------------7---5--|-7-------3---0-------------------| 
A|---------------------------------|---------------------------------| 
D|--5------------------------------|---------------------------------| 

23  1   &   2   &   3   &   4   &    1   &   2   &   3   &   4   & 
e|------------------3---3---1---1--|-----------------3---3---1---1---| 
B|------------------3---3---3---3--|-----------------3---3---3---3---| 
G|------------------2---2---2---2--|-----------------2---2---2---2---| 
D|---------------------------------|---------------------------------| 
A|---------------------------------|---------------------------------| 
D|--0-------0-------0-------0------|-0-------0-------0-------0-------| 

25  1   &   2   &   3   &   4   &    1   &   2   &   3   &   4   & 
e|------------------3---3---1---1--|-----------------3---3---1---1---| 
B|------------------3---3---3---3--|-----------------3---3---3---3---| 
G|------------------2---2---2---2--|-----------------2---2---2---2---| 
D|---------------------------------|---------------------------------| 
A|---------------------------------|---------------------------------| 
D|--0-------0-------0-------0------|-0-------0-------0-------0-------| 

27  1   &   2   &   3   &   4   &    1   &   2   &   3   &   4   & 
e|----------------------5---3p1----|---------------------------------| 
B|------------------------------3--|-3-------------------3---1---3---| 
G|---------------------------------|---------------------------------| 
D|---------------------------------|---------------------------------| 
A|---------------------------------|---------------------------------| 
D|--0------------------------------|-0-------0-------0-------0-------| 

29  1   &   2   &   3   &   4   &    1   &   2   &   3   &   4   & 
e|---------------------------------|-----------------------------1---| 
B|------3--------------------------|-3---3---3---1---3---1---3-------| 
G|---------------------------------|---------------------------------| 
D|---------------------------------|---------------------------------| 
A|---------------------------------|---------------------------------| 
D|--0-------0-------0-------0------|-0-------0-------0-------0-------| 

31  1   &   2   &   3   &   4   &    1   &   2   &   3   &   4   & 
e|--------------------------5---3p1|-----------------------------1---| 
B|------1--------------------------|-3-------------------1---1-------| 
G|---------------------------------|---------------------------------| 
D|---------------------------------|---------------------------------| 
A|---------------------------------|---------------------------------| 
D|--0-------0-------0-------0------|-0-------0-------0-------0-------| 

33  1   &   2   &   3   &   4   &    1   &   2   &   3   &   4   & 
e|------1--------------------------|-----------------------------3---| 
B|--3------------------------------|-1---3---3---1---3---3---1-------| 
G|--------------------------2---2--|---------------------------------| 
D|---------------------------------|---------------------------------| 
A|---------------------------------|---------------------------------| 
D|--0-------0-------0-------0------|-0-------0-------0-------0-------| 

35  1   &   2   &   3   &   4   &    1   &   2   &   3   &   4   & 
e|---------------------------------|---------------------------------| 
B|--3p1-------------------------1--|-----3---3---1---3-----------1---| 
G|------2-------------------2------|-2-----------------------2-------| 
D|---------------------------------|-0-------------------------------| 
A|---------------------------------|-0-------------------------------| 
D|--0-------0-------0-------0------|-0-------------------------------| 

37  1   &   2   &   3   &   4   &    1   &   2   &   3   &   4   & 
e|---------------------------------|---------------------------------| 
B|------3---3---1---3-----------1--|-----3---3---1---3-----------1---| 
G|--2-----------------------2------|-2-----------------------2-------| 
D|--0------------------------------|-0-------------------------------| 
A|--0------------------------------|-0-------------------------------| 
D|--0------------------------------|-0-------------------------------| 

    |____3____| 
39  1   &   2   &   3   &   4   &    1   &   2   &   3   &   4   & 
e|--5----3----1--------------------|-5-------5-------5---3---3-------| 
B|------------------3--------------|-----------------------------6---| 
G|---------------------------------|---------------------------------| 
D|---------------------------------|---------------------------------| 
A|---------------------------------|---------------------------------| 
D|--0------------------------------|-0-------0-------0-------0-------| 

41  1   &   2   &   3   &   4   &    1   &   2   &   3   &   4   & 
e|--3---3-------5------------------|-5-------------------------------| 
B|----------6-----------3---3---3--|-----8---6---8-----------6---8---| 
G|---------------------------------|---------------------7-----------| 
D|---------------------------------|---------------------------------| 
A|---------------------------------|---------------------------------| 
D|--0-------0-------0-------0------|-5-------5-------5-------5-------| 

43  1   &   2   &   3   &   4   &    1   &   2   &   3   &   4   & 
e|--5------------------------------|---------------------------------| 
B|------8---6----------------------|--------10-------8-------8-------| 
G|--------------5-------5---5---7--|----------------------------10---| 
D|---------------------------------|---------------------------------| 
A|---------------------------------|---------------------------------| 
D|--5-------5-------5-------5------|-8-------8-------8-------8-------| 

45  1   &   2   &   3   &   4   &    1   &   2   &   3   &   4   & 
e|---------------------------------|---------------------------------| 
B|--8---8------10------------------|-6---6---------------------------| 
G|---------10-------------------2--|---------7---7---5---5-----------| 
D|---------------------------------|-------------------------7---5---| 
A|--0-------0-------0-------0------|---------------------------------| 
D|---------------------------------|-5-------5-------5-------5-------| 

47  1   &   2   &   3   &   4   &    1   &   2   &   3   &   4   & 
e|------------------3---3---1---1--|-----------------3---3---1---1---| 
B|------------------3---3---3---3--|-----------------3---3---3---3---| 
G|------0-----------2---2---2---2--|-----------------2---2---2---2---| 
D|--7-------3---0------------------|---------------------------------| 
A|---------------------------------|---------------------------------| 
D|---------------------------------|-0-------0-------0-------0-------| 

49  1   &   2   &   3   &   4   &    1   &   2   &   3   &   4   & 
e|------------------3---3---1---1--|-----------------3---3---1---1---| 
B|------------------3---3---3---3--|-----------------3---3---3---3---| 
G|------------------2---2---2---2--|-----------------2---2---2---2---| 
D|---------------------------------|---------------------------------| 
A|---------------------------------|---------------------------------| 
D|--0-------0-------0-------0------|-0-------0-------0-------0-------| 

                                     |____3____|     |____3____| 
51  1   &   2   &   3   &   4   &    1   &   2   &   3   &   4   & 
e|------------------3---3---1---1--|---------------------------------| 
B|------------------3---3---3---3--|-3----3----3-----3----3----3-----| 
G|------------------2---2---2---2--|-2----2----2-----2----2----2-----| 
D|---------------------------------|-0----0----0-----0----0----0-----| 
A|---------------------------------|---------------------------------| 
D|--0-------0-------0-------0------|-0---------------0---------------| 

                                                     |____3____| 
53  1   &   2   &   3   &   4   &    1   &   2   &   3   &   4   & 
e|------------------------------0--|-1---3---0---1-------------------| 
B|--------------------------3------|-----------------3---------------| 
G|------------------2--------------|----------------------2----2-----| 
D|----------0----------------------|---------------------------------| 
A|---------------------------------|-4-------------------------------| 
D|--0------------------------------|---------------------------------| 

55  1   &   2   &   3   &   4   &    1   &   2   &   3   &   4   & 
e|---------------------------------|---------------------------------| 
B|---------------------------------|---------------------------------| 
G|--2------------------------------|-3-------3---3-------3---5---2---| 
D|--3------------------------------|-----5---------------------------| 
A|--3------------------------------|---------------------------------| 
D|--3------------------------------|-5-------------------------------| 

                                                     |____3____| 
57  1   &   2   &   3   &   4   &    1   &   2   &   3   &   4   & 
e|------------------------------0--|-1---3---0---1-------------------| 
B|--------------------------3------|---------------------------------| 
G|------------------2--------------|-----------------2----2----2-----| 
D|----------0----------------------|---------------------------------| 
A|---------------------------------|-4-------------------------------| 
D|--0------------------------------|---------------------------------| 

59  1   &   2   &   3   &   4   &    1   &   2   &   3   &   4   & 
e|---------------------------------|---------------------------------| 
B|---------------------------------|---------------------------------| 
G|--2---------------2--------------|-3---------------3---3---5---2---| 
D|--3---------------3--------------|-5-------------------------------| 
A|--3---------------3--------------|-5-------------------------------| 
D|--3---------------3--------------|-5-------------------------------| 

                    |____3____|                      |____3____| 
61  1   &   2   &   3   &   4   &    1   &   2   &   3   &   4   & 
e|------------------5----3---------|-----3---5-----------------------| 
B|----------------------------6----|---------------------------------| 
G|---------------------------------|----------------------1----3-----| 
D|---------------------------------|---------------------------------| 
A|---------------------------------|-0-------------------------------| 
D|--0------------------------------|---------------------------------| 

    |____3____|     |____3____| 
63  1   &   2   &   3   &   4   &    1   &   2   &   3   &   4   & 
e|--5----7----5-----3----1----0----|-1p0-----------------------------| 
B|---------------------------------|-----3-------1---3---------------| 
G|---------------------------------|---------------2-----------------| 
D|---------------------------------|---------------------------------| 
A|---------------------------------|---------------------------------| 
D|--3---------------2--------------|-0-------------------------------| 

    |____3____| 
65  1   &   2   &   3   &   4   &    1   &   2   &   3   &   4   & 
e|------------------5--------------|---------------------------------| 
B|--3----6----3-----------------3--|-6-------------------------------| 
G|---------------------------------|---------------------------------| 
D|---------------------------------|---------------------------------| 
A|---------------------------------|---------------------------------| 
D|--5------------------------------|-5-------------------------------| 


    |____3____|     |____3____|      |____3____|   |____3____| 
67  1   &   2   &   3   &   4   &    1   &   2   &   3   &   4   & 
e|---------------------------------|----------------------1----------| 
B|--3----3----------3----6---------|-3----3----1-----3---------------| 
G|------------5--------------------|---------------------------------| 
D|---------------------------------|---------------------------------| 
A|---------------------------------|---------------------------------| 
D|--5------------------------------|-2-------------------------------| 

    |____3____|     |____3____| 
69  1   &   2   &   3   &   4   &    1   &   2   &   3   &   4   & 
e|-----------------------1---------|-----------------3---3---3---3---| 
B|--3----3----1-----3--------------|-----------------3---3---3---3---| 
G|---------------------------------|-----------------2---2---2---2---| 
D|---------------------------------|---------------------------------| 
A|---------------------------------|---------------------------------| 
D|--2------------------------------|---------------------------------| 

71  1   &   2   &   3   &   4   &    1   &   2   &   3   &   4   & 
e|------------------3---3---1---1--|-----------------3---3---1---1---| 
B|------------------3---3---3---3--|-----------------3---3---3---3---| 
G|------------------2---2---2---2--|-----------------2---2---2---2---| 
D|---------------------------------|---------------------------------| 
A|---------------------------------|---------------------------------| 
D|--0-------0-------0-------0------|-0-------0-------0-------0-------| 

73  1   &   2   &   3   &   4   &    1   &   2   &   3   &   4   & 
e|------------------3---3---1---1--|-----------------3---3---1---1---| 
B|------------------3---3---3---3--|-----------------3---3---3---3---| 
G|------------------2---2---2---2--|-----------------2---2---2---2---| 
D|---------------------------------|---------------------------------| 
A|---------------------------------|---------------------------------| 
D|--0-------0-------0-------0------|-0-------0-------0-------0-------|  
less
plus
Add to Songbook Print Version How to play lesson Submit videolesson
Click the best TAGS for this song:
None of them
Contributor: warasirj Correct

If you can not find the chords or tabs you want, look at our partner E-chords. If you are a premium member, you have total access to our video lessons.

If you find a wrong Bad To Me from Adele, click the correct button above.

login/signup
my songbooks
my recent views
my submits