tools Ultimate Tabs

Start AutoScroll Font Size Down Font Size Up

Find us on Facebook

chords
tabs
bass
ukulele keyboards
drums
flute
harmonica
guitar pro
video
Ultimate-Tabs

Devolva-me

 
Introdução: 
 
E|--------------------------------------------------- 
B|--------0-------3-------1-------3-------1-------0-- 
G|------0---0---0---0---0---0---0---0---0---0---0---- 
D|----2-------2-------2-------2-------2-------2------ 
A|--3------------------------------------------------ 
E|--------------------------------------------------- 
 
E|----------------- 
B|--------1-----1-- 
G|--0---0---0---0-- 
D|----2-------2---- 
A|----------------- 
E|----------------- 
 
Canto: 
   Dm7            G7*            C*1  
E|-------1-----1--------3-----3---------------------- 
B|-----1-1---1--------6-6---6----------0-------3----- 
G|---2-----2--------4-----4----------0---0---0---0--- 
D|-0-------------------------------2-------2-------2- 
A|-------------------------------3------------------- 
E|----------------3---------------------------------- 
              C(a)             E7 
E|------------------0----------------0---------- 
B|---1-----1------1---1---1--------3---3---3---- 
G|-0---0---0----0-------0---0----1-------1---1-- 
D|-------2-------------------------------------- 
A|------------3--------------------------------- 
E|-----------------------------0---------------- 
   Am               Dm               G7 
E|-------0----------------1----------------3--------- 
B|-----1---1---1--------3---3---3--------6---6---6--- 
G|---2-------2---2----2-------2---2----4-------4---4- 
D|------------------0-------------------------------- 
A|-0------------------------------------------------- 
E|-----------------------------------3--------------- 
    C(b) F                C*2 
E|--0----------1------------------------------------- 
B|--1--------1---1---1----------0-------3-------1---- 
G|--0------2-------2---2------0---0---0---0---0---0-- 
D|--2-----------------------2-------2-------2-------- 
A|--3---------------------3-------------------------- 
E|-------1------------------------------------------- 
        C+ 
E|------0-- 
B|------0-- 
G|---0--0-- 
D|-2----2-- 
A|------3-- 
E|--------- 
 
Dm7          G7*         Dm7     G7*        Dm7  G7* 
Rasgue as minhas cartas e Não me procure mais Assim 
       C*1          Dm7   G7*           Dm7     G7* 
será melhor meu bem O retrato que eu te dei Se ainda 
      Dm7         G7*        C(a)    E7   
tens não sei Mas se tiver devolva-me Deixe-me sozi- 
              Am        Dm                     G7 
nho Por que assim Eu viverei em paz Quero que sejas 
                    C(a)       C(b) 
bem feliz Junto do seu novo rapaz 
 
Repete do inicio até ...devolva-me 
   Am         F       C*2 C+     
Devolva-me,devol...va-me 
 
  
_______________________________________________________ 
Contribuição: Jorcimar Ferreira de Paiva([email protected]) 
less
plus
Add to Songbook Print Version How to play lesson Submit videolesson
Click the best TAGS for this song:
None of them
Contributor: ip66jane Correct

If you can not find the chords or tabs you want, look at our partner E-chords. If you are a premium member, you have total access to our video lessons.

If you find a wrong Bad To Me from Adriana Calcanhotto, click the correct button above.

login/signup
my songbooks
my recent views
my submits