Adrianne Lenker

Terminal Paradise tab

Adrianne Lenker

tools Ultimate Tabs

Start AutoScroll Font Size Down Font Size Up

Find us on Facebook

chords
tabs
bass
ukulele
keyboards
drums
flute
harmonica
guitar pro
video
Ultimate-Tabs

Terminal Paradise

Tuning: DADF#Ge

Capo 3

Key of Em + 3 = Gm

6/8 time


Intro

e |-------------|-------------|-------------|-------------|
G |-------------|-------0-----|-------0-----|-------0-----|
F#|-------------|-----0-----0-|-----0-----0-|-----0-----0-|
D |-------0h2h4-|---2-----2---|---2-----2---|---2-----2---|
A |-0h2h4-------|-------4-----|-------4-----|-------4-----|
D |-------------|-2-----------|-2-----------|-2-----------|

e |-------------|-------------|-------------|-------------|
G |-------------|-------0-----|-------0-----|-------0-----|
F#|-------------|-----3-----3-|-----3-----3-|-----3-----3-|
D |-------0h2h4-|---4-----4---|---4-----4---|---4-----4---|
A |-0h2h4-------|-2-----2-----|-2-----2-----|-2-----2-----|
D |-------------|-------------|-------------|-------------|

e |-------------|-------------|-------------|
G |-------0-----|-------0-----|-------0-----|
F#|-----7-----7-|-----7-----7-|-----7-----0-|
D |---5-----5---|---5-----5---|---5-----5---|
A |-7-----------|-7-----------|-------------|
D |-------------|-------------|-7-----------|


Verse

e |-------------|-------------|-------------|-------------|
G |-------------|-------0-----|-------0-----|-------0-----|
F#|-------------|-----0-----0-|-----0-----0-|-----0-----0-|
D |-------0h2h4-|---2-----2---|---2-----2---|---2-----2---|
A |-0h2h4-------|-------4-----|-------4-----|-------4-----|
D |-------------|-2-----------|-2-----------|-2-----------|
   Warm_______________________________

e |-------------|-------------|-------------|-------------|
G |-------------|-------0-----|-------0-----|-------0-----|
F#|-------------|-----3-----3-|-----3-----3-|-----3-----3-|
D |-------0h2h4-|---4-----4---|---4-----4---|---4-----4---|
A |-0h2h4-------|-2-----2-----|-2-----2-----|-2-----2-----|
D |-------------|-------------|-------------|-------------|
   So____________      warm_________________

e |-------------|-------------|-------------|-------------|
G |-------0-----|-------0-----|-------0-----|-------0-----|
F#|-----7-----7-|-----7-----7-|-----7-----0-|-----7-----0-|
D |---5-----5---|---5-----5---|---5-----5---|---5-----5---|
A |-7-----------|-7-----------|-------------|-------------|
D |-------------|-------------|-7-----------|-7-----------|
                Screaming in a field

e |-------------|-------------|-------------|-------------|
G |-------0-----|-------0-----|-------0-----|-------0-----|
F#|-----7-----7-|-----7-----7-|-----7-----7-|-----7-----7-|
D |---0-----0---|---0-----0---|---0-----0---|---0-----0---|
A |-------4-----|-------4-----|-------4-----|-------4-----|
D |-5-----------|-4-----------|-5-----------|-4-----------|
   As I was      born

e |-------------|-------------|-------------|-------------|
G |-------------|-------0-----|-------0-----|-------0-----|
F#|-------------|-----0-----0-|-----0-----0-|-----0-----0-|
D |-------0h2h4-|---2-----2---|---2-----2---|---2-----2---|
A |-0h2h4-------|-------4-----|-------4-----|-------4-----|
D |-------------|-2-----------|-2-----------|-2-----------|
   Worm_______________________________

e |-------------|-------------|-------------|-------------|
G |-------------|-------0-----|-------0-----|-------0-----|
F#|-------------|-----3-----3-|-----3-----3-|-----3-----3-|
D |-------0h2h4-|---4-----4---|---4-----4---|---4-----4---|
A |-0h2h4-------|-2-----2-----|-2-----2-----|-2-----2-----|
D |-------------|-------------|-------------|-------------|
    Will you return                     me

e |-------------|-------------|-------------|-------------|
G |-------0-----|-------0-----|-------0-----|-------0-----|
F#|-----7-----7-|-----7-----7-|-----7-----0-|-----7-----0-|
D |---5-----5---|---5-----5---|---5-----5---|---5-----5---|
A |-7-----------|-7-----------|-------------|-------------|
D |-------------|-------------|-7-----------|-7-----------|
          To the robin's beak

e |-------------|-------------|-------------|-------------|
G |-------0-----|-------0-----|-------0-----|-------0-----|
F#|-----7-----7-|-----7-----7-|-----7-----7-|-----7-----7-|
D |---0-----0---|---0-----0---|---0-----0---|---0-----0---|
A |-------4-----|-------4-----|-------4-----|-------4-----|
D |-5-----------|-4-----------|-5-----------|-4-----------|
    I'll be your bird


Chorus

e |-----------0-|-----------0-|-----------0-|-----------0-|
G |-------0-----|-------0-----|-------0-----|-------0-----|
F#|-----0-------|-----0-------|-----0-------|-----0-------|
D |---7-----7---|---7-----7---|---7-----7---|---7-----7---|
A |-------5-----|-------5-----|-------5-----|-------5-----|
D |-7-----------|-7-----------|-7-----------|-7-----------|
                 Terminal

e |-----------0-|-----------0-|-----------0-|-----------0-|
G |-------0-----|-------0-----|-------0-----|-------0-----|
F#|-----0-------|-----0-------|-----0-------|-----0-------|
D |---9-----9---|---9-----9---|---9-----9---|---9-----9---|
A |-------7-----|-------7-----|-------7-----|-------7-----|
D |-9-----------|-9-----------|-9-----------|-9-----------|
              We both know

e |-----------0-|-----------0-|-----------0-|-----------0-|
G |-------0-----|-------0-----|-------0-----|-------0-----|
F#|-----0-------|-----0-------|-----0-------|-----0-------|
D |---5-----5---|---5-----5---|---5-----5---|---5-----5---|
A |-------2-----|-------2-----|-------2-----|-------2-----|
D |-2-----------|-2-----------|-2-----------|-2-----------|
        Let the rest

e |-----------0-|-----------0-|-----------0-|-------------|
G |-------0-----|-------0-----|-------0-----|-------0-----|
F#|-----0-------|-----0-------|-----0-------|-----0-----0-|
D |---11----11--|---11----11--|---11----11--|---11----0---|
A |-------7-----|-------7-----|-------7-----|-------0-----|
D |-7-----------|-7-----------|-7-----------|-7-----------|
          Of me go

e |-----------0-|-----------0-|-----------0-|-----------0-|
G |-------0-----|-------0-----|-------0-----|-------0-----|
F#|-----0-------|-----0-------|-----0-------|-----0-------|
D |---7-----7---|---7-----7---|---7-----7---|---7-----7---|
A |-------5-----|-------5-----|-------5-----|-------5-----|
D |-7-----------|-7-----------|-7-----------|-7-----------|
          See my death       become a trail

e |-----------0-|-----------0-|-----------0-|-----------0-|
G |-------0-----|-------0-----|-------0-----|-------0-----|
F#|-----0-------|-----0-------|-----0-------|-----0-------|
D |---9-----9---|---9-----9---|---9-----9---|---9-----9---|
A |-------7-----|-------7-----|-------7-----|-------7-----|
D |-9-----------|-9-----------|-9-----------|-9-----------|
        And the trail   leads  to a flower

e |-----------0-|-----------0-|-----------0-|-----------0-|
G |-------0-----|-------0-----|-------0-----|-------0-----|
F#|-----0-------|-----0-------|-----0-------|-----0-------|
D |---5-----5---|---5-----5---|---5-----5---|---5-----5---|
A |-------2-----|-------2-----|-------2-----|-------2-----|
D |-2-----------|-2-----------|-2-----------|-2-----------|
            I will blossom  in your sail

e |-----------0-|-----------0-|-----------0-|-------------|
G |-------0-----|-------0-----|-------0-----|-------0-----|
F#|-----0-------|-----0-------|-----0-------|-----0-----0-|
D |---11----11--|---11----11--|---11----11--|---11----0---|
A |-------7-----|-------7-----|-------7-----|-------0-----|
D |-7-----------|-7-----------|-7-----------|-7-----------|
    Every dreamed and waking   hour____________________

                          rit.
e |-------------|-------------|-------------|
G |-------------|-------------|-------0-----|
F#|-----0-------|-----0-------|-----0-----0-|
D |---4-------4-|---4-------4-|---4-----0---|
A |-------4h5---|-------4h5---|-------------|
D |-0-----------|-0-----------|-0-----------|


Verse

e |-------------|-------------|-------------|-------------|
G |-------------|-------0-----|-------0-----|-------0-----|
F#|-------------|-----0-----0-|-----0-----0-|-----0-----0-|
D |-------0h2h4-|---2-----2---|---2-----2---|---2-----2---|
A |-0h2h4-------|-------4-----|-------4-----|-------4-----|
D |-------------|-2-----------|-2-----------|-2-----------|
   Woman______________________________________

e |-------------|-------------|-------------|-------------|
G |-------------|-------0-----|-------0-----|-------0-----|
F#|-------------|-----3-----3-|-----3-----3-|-----3-----3-|
D |-------0h2h4-|---4-----4---|---4-----4---|---4-----4---|
A |-0h2h4-------|-2-----2-----|-2-----2-----|-2-----2-----|
D |-------------|-------------|-------------|-------------|
   Woman_______________________________________

e |-------------|-------------|-------------|-------------|
G |-------0-----|-------0-----|-------0-----|-------0-----|
F#|-----7-----7-|-----7-----7-|-----7-----0-|-----7-----0-|
D |---5-----5---|---5-----5---|---5-----5---|---5-----5---|
A |-7-----------|-7-----------|-7-----------|-7-----------|
D |-------------|-------------|-------------|-------------|
                Hold me in your heat

e |-------------|-------------|-------------|-------------|
G |-------0-----|-------0-----|-------0-----|-------0-----|
F#|-----7-----7-|-----7-----7-|-----7-----0-|-----7-----0-|
D |---5-----5---|---5-----5---|---5-----5---|---5-----5---|
A |-------------|-------------|-------------|-------------|
D |-7-----------|-7-----------|-7-----------|-7-----------|

e |-------------|-------------|-------------|-------------|
G |-------0-----|-------0-----|-------0-----|-------0-----|
F#|-----7-----7-|-----7-----7-|-----7-----7-|-----7-----7-|
D |---0-----0---|---0-----0---|---0-----0---|---0-----0---|
A |-------4-----|-------4-----|-------4-----|-------4-----|
D |-5-----------|-4-----------|-5-----------|-4-----------|
   Til  I  re    don't let me  til  I  re    don't let me

e |-------------|-------------|-------------|-------------|
G |-------0-----|-------0-----|-------0-----|-------0-----|
F#|-----7-----7-|-----7-----7-|-----7-----7-|-----7-----7-|
D |---0-----0---|---0-----0---|---0-----0---|---0-----0---|
A |-------4-----|-------4-----|-------4-----|-------4-----|
D |-5-----------|-4-----------|-5-----------|-4-----------|
    I  remember


Chorus

e |-----------0-|-----------0-|-----------0-|-----------0-|
G |-------0-----|-------0-----|-------0-----|-------0-----|
F#|-----0-------|-----0-------|-----0-------|-----0-------|
D |---7-----7---|---7-----7---|---7-----7---|---7-----7---|
A |-------5-----|-------5-----|-------5-----|-------5-----|
D |-7-----------|-7-----------|-7-----------|-7-----------|
                 Terminal

e |-----------0-|-----------0-|-----------0-|-----------0-|
G |-------0-----|-------0-----|-------0-----|-------0-----|
F#|-----0-------|-----0-------|-----0-------|-----0-------|
D |---9-----9---|---9-----9---|---9-----9---|---9-----9---|
A |-------7-----|-------7-----|-------7-----|-------7-----|
D |-9-----------|-9-----------|-9-----------|-9-----------|
              We both know

e |-----------0-|-----------0-|-----------0-|-----------0-|
G |-------0-----|-------0-----|-------0-----|-------0-----|
F#|-----0-------|-----0-------|-----0-------|-----0-------|
D |---5-----5---|---5-----5---|---5-----5---|---5-----5---|
A |-------2-----|-------2-----|-------2-----|-------2-----|
D |-2-----------|-2-----------|-2-----------|-2-----------|
        Let me rest

e |-----------0-|-----------0-|-----------0-|-------------|
G |-------0-----|-------0-----|-------0-----|-------0-----|
F#|-----0-------|-----0-------|-----0-------|-----0-----0-|
D |---11----11--|---11----11--|---11----11--|---11----0---|
A |-------7-----|-------7-----|-------7-----|-------0-----|
D |-7-----------|-7-----------|-7-----------|-7-----------|
          Let me go

e |-----------0-|-----------0-|-----------0-|-----------0-|
G |-------0-----|-------0-----|-------0-----|-------0-----|
F#|-----0-------|-----0-------|-----0-------|-----0-------|
D |---7-----7---|---7-----7---|---7-----7---|---7-----7---|
A |-------5-----|-------5-----|-------5-----|-------5-----|
D |-7-----------|-7-----------|-7-----------|-7-----------|
          See my death       become a trail

e |-----------0-|-----------0-|-----------0-|-----------0-|
G |-------0-----|-------0-----|-------0-----|-------0-----|
F#|-----0-------|-----0-------|-----0-------|-----0-------|
D |---9-----9---|---9-----9---|---9-----9---|---9-----9---|
A |-------7-----|-------7-----|-------7-----|-------7-----|
D |-9-----------|-9-----------|-9-----------|-9-----------|
        And the trail   leads  to a flower

e |-----------0-|-----------0-|-----------0-|-----------0-|
G |-------0-----|-------0-----|-------0-----|-------0-----|
F#|-----0-------|-----0-------|-----0-------|-----0-------|
D |---5-----5---|---5-----5---|---5-----5---|---5-----5---|
A |-------2-----|-------2-----|-------2-----|-------2-----|
D |-2-----------|-2-----------|-2-----------|-2-----------|
            I will blossom  in your sail

e |-----------0-|-----------0-|-----------0-|-------------|
G |-------0-----|-------0-----|-------0-----|-------0-----|
F#|-----0-------|-----0-------|-----0-------|-----0-----0-|
D |---11----11--|---11----11--|---11----11--|---11----0---|
A |-------7-----|-------7-----|-------7-----|-------0-----|
D |-7-----------|-7-----------|-7-----------|-7-----------|
    Every dreamed and waking   hour____________________


Outro

e |-------------|-------------|-------------|-------------|
G |-------2-----|-------2-----|-------0-----|-------0-----|
F#|-----0-----0-|-----0-----0-|-----0-----0-|-----0-----0-|
D |---0-----0---|---0-----0---|---0-----0---|---0-----0---|
A |-------0-----|-------0-----|-------0-----|-------0-----|
D |-0-----------|-0-----------|-0-----------|-0-----------|

e |-------------|-------------|-------------|-------------|
G |-------2-----|-------2-----|-------0-----|-------0-----|
F#|-----0-----0-|-----0-----0-|-----0-----0-|-----0-----0-|
D |---0-----0---|---0-----0---|---0-----0---|---0-----0---|
A |-------0-----|-------0-----|-------0-----|-------0-----|
D |-0-----------|-0-----------|-0-----------|-0-----------|

etc. freely


Lyrics

Warm
So warm
Screaming in a field
As I was born

Worm
Will you return me
To the robin's beak
I'll be your bird

Terminal
We both know
Let the rest
Of me go

See my death become a trail
And the trail leads to a flower
I will blossom in your sail
Every dreamed and waking hour

Woman
Woman
Hold me in your heat
Til I re don't let me til I re don't let me
I remember

Terminal
We both know
Let the rest
Of me go

See my death become a trail
And the trail leads to a flower
I will blossom in your sail
Every dreamed and waking hour


************************************

| h    Hammer-on
|(n)   Ghost note
| p    Pull-off

************************************
less
plus
Add to Songbook Print Version How to play lesson Submit videolesson
Click the best TAGS for this song:
None of them
Contributor: Anonymous Correct

If you can not find the chords or tabs you want, look at our partner E-chords. If you are a premium member, you have total access to our video lessons.

If you find a wrong Bad To Me from Adrianne Lenker, click the correct button above.

login/signup
my songbooks
my recent views
my submits