Aerosmith

Dream On[intro] tab

Aerosmith

tools Ultimate Tabs

Start AutoScroll Font Size Down Font Size Up

Find us on Facebook

chords
tabs
bass
ukulele
keyboards
drums
flute
harmonica
guitar pro
video
Ultimate-Tabs

Dream On[intro]

       e--4-----4--- --3-----3--- --4-----4--- --3-----3--- 
       b--6-----6--- --4-----4--- --3-----3--- --2-----2--- 
       g-----5-----5 -----5-----5 -----5-----5 -----5-----5 
       d------------ ------------ ------------ ------------ 
       a------------ ------------ ------------ ------------ 
       e------------ ------------ ------------ ------------ 




       


       e--4-----4--- --6-----6--- --8------8---- --8--- 
       b--6-----6--- --8-----8--- --9------9---- --9--- 
       g-----5-----5 -----5-----5 -----10-----10 ------ 
       d------------ ------------ -------------- ------ 
       a------------ ------------ -------------- ------ 
       e------------ ------------ -------------- ------ 





                         X2  
less
plus
Add to Songbook Print Version How to play lesson Submit videolesson
Click the best TAGS for this song:
None of them
Contributor: emmztsid Correct

If you can not find the chords or tabs you want, look at our partner E-chords. If you are a premium member, you have total access to our video lessons.

If you find a wrong Bad To Me from Aerosmith, click the correct button above.

login/signup
my songbooks
my recent views
my submits