Aerosmith

I Don't Want To Miss A Thing (ver. 2) bass

Aerosmith

tools Ultimate Tabs

Start AutoScroll Font Size Down Font Size Up

Find us on Facebook

chords
tabs
bass
ukulele
keyboards
drums
flute
harmonica
guitar pro
video
Ultimate-Tabs

I Don't Want To Miss A Thing (ver. 2)

I Don't Want To Miss A Thing 
Aerosmith 
Tabbed by: Rodrigo ([email protected]) 
Tuning Standart 
 
~ = let ring 
 
Verse: 
G---------------------------------------------------------------- 
D-0~--------------0~----------0~--------------0~--------------0~- 
A-----0~--2~--------------0~------0~--2~----------0~------------- 
E-------------3~------0~------------------3~----------3~--3~----- 
 
Chorus: 
G------------------------------------------------------- 
D-0~----------------------0~-------------------------0~- 
A-----0~----------2~--0~---------0~----------2~--0~----- 
E---------0~--3~---------------------0~--3~------------- 
 
Bridge: 
G--------------------------------- 
D--------------------------0~----- 
A-3~------2~-------3~------------- 
E-----3~------1~-------3~------0~- 
 
To know the exactly order hear the song 
 
Order: 
 
Verse 
Chorus 
Verse 
Chorus 
Verse 
Bridge 
Chorus (x2) 
 
 
less
plus
Add to Songbook Print Version How to play lesson Submit videolesson
Click the best TAGS for this song:
None of them
Contributor: ghinshad Correct

If you can not find the chords or tabs you want, look at our partner E-chords. If you are a premium member, you have total access to our video lessons.

If you find a wrong Bad To Me from Aerosmith, click the correct button above.

login/signup
my songbooks
my recent views
my submits