tools Ultimate Tabs

Start AutoScroll Font Size Down Font Size Up

Find us on Facebook

Ultimate-Tabs

Walk This Way

 intro:

e|--------------------|---------------------------|
b|--------------------|---------------------------|
g|--------------------|------------------------2--|
d|-------2--------2---|---------2--------2-----2--  
a|-0-1-2----0-1-2-----|-x-0-1-2----0-1-2----------|
e|------------------0-|--------------------3p0----|

 verso:

 pm|----------------------------------| 
e|-------------------------------------|
b|--5--0--3--0--2--0--5-5-5-x-0--2--x--|
g|-------------------------------------|
d|-------------------------------------|
a|-------------------------------------|
e|-------------------------------------|

 apos o verso o riff seguinte e bem parecido
 com a introduçâo,mas com algumas alteraçoes.

 veja sò 
e|------------------------------------------------|
b|------------------------------------------------|
g|------------------------------------------------|
d|-------2-------2---------------2--------2------2|
a|-0-1-2---0-1-2-----x-x-x-0-1-2----0-1-2---------|
e|-----------------0------------------------0-3p0-|

 refrâo
                                    
   walk___this___way
e|----------------------5-----5---5--|
b|----------------------4-----4---4--|
g|-----------------------------------|
d|--5------7------8------------------|
a|--3------3------3------------------|
e|-----------------------------------|

 solo 1 :

e|-11b---8h11p8----8--------8---------------------|
b|--------------11----11br----11--8---------------|
g|-----------------------------------11--10p8--10-|
d|------------------------------------------------|
a|------------------------------------------------|
e|------------------------------------------------|

e|------------------------------------------------|
b|------------------------10br--10--8-----8-------|
g|-----10--10b--8~~~-------------------10---11----|
d|--10----------------10--------------------------|
a|------------------------------------------------|
e|------------------------------------------------|

e|-------------------------------------------|
b|------------------------------11b--11------|
g|--10p8--10p8--11--10-8--10p8---------------|
d|----------------------------------------7--|
a|----------------------------------------7--|
e|----------------------------------------5--|

 solo 2:

e--8--8-----5-------------------------------------|
b--8--8--5----------------------------------------|
g--------------8p7p5--7p5--7p5--7--7br--7p5--0h3--|
d-------------------------------------------------|
a-------------------------------------------------|
e-------------------------------------------------|

e--3----------------------------------------------|
b-----5----5--------------------------------------|
g-----5--3------------------------------------5---|
d-------------5--7--7--7b--r7--r7--------7/8------|
a-------------------------------------------------|
e----------------------------------8-8-8----------|

e-------------------------------------------------|
b----------------------8p5----5-------------------|
g--8p5----8--5---5--8-------8---8--7p5--7---7b--7-|
d-------8------8----------------------------------|
a-------------------------------------------------|
e-------------------------------------------------|

e-------------------|
b-------------------|
g--5--7b--r7--5-----|
d----------------7--|
a----------------7--|
e----------------5--|

ultimo riff
                                                 2x   
e--------------------------------------------------|
b--------------------------------------------------|
g--------------------------------------------------|
d-------2--------2------2b-------2-------2---4b-4b-|
a----------0-1-2-------------------0-1-2-----------|
e-0-3-4-------------0------0-3-4-----------0-------|

e--------------------------------------------------|
b--------------------------------------------------|
g-------------------------------------------------- 
d-------3--------2---14b-------2--------2---16b-16b|
a----------0-1-2------------------0-1-2------------|
e-0-3-4------------0-----0-3-4------------0--------|

 o ultimo solo eu ainda vo te que tira
 mas eu acho que porem quanto tudo isso ai
 ta bom.


_______________________________________________________
Contribuição: derik kellner([email protected]) 
less
plus
Add to Songbook Print Version How to play lesson Submit videolesson
Click the best TAGS for this song:
None of them
Contributor: logiAvri Correct

If you can not find the chords or tabs you want, look at our partner E-chords. If you are a premium member, you have total access to our video lessons.

If you find a wrong Bad To Me from Aerosmith, click the correct button above.

login/signup
my songbooks
my recent views
my submits