Against me

White People For Peace tab

Against me

tools Ultimate Tabs

Start AutoScroll Font Size Down Font Size Up

Find us on Facebook

chords
tabs
bass ukulele keyboards
drums
flute
harmonica
guitar pro video
Ultimate-Tabs

White People For Peace

Rythem Guitar

*play along with the rythem*

Intro
e-----------------------------------------------------|
B-----------------------------------------------------|
G-----------------8-----------------------------------|
D-----10----6-----8-----8-----------------------------|
A-----10----6-----6-----8-----------------------------|
E-----8-----4-----------6-----------------------------|

Verse
e-----------------------------------------------------|
B-----------------------------------------------------|
G-----------------------------------------------------|
D-----10-------------------------------6--------------|
A-----10-------------------------------6--------------|
E-----8--------------------------------4--------------|
      
Bridge 
e-----------------------------------------------------|
B-----------------------------------------------------|
G--------------------------------8--------------------|
D------8------10--------6--------8--------------8-----|
A------8------10--------6--------6--------------8-----|
E------6------8---------4-----------------------6-----|

Chorus
e-----------------------------------------------------|
B-----------------------------------------------------|
G-----------------8-----------------------------------|
D-----10----6-----8-----8-----------------------------|
A-----10----6-----6-----8-----------------------------|
E-----8-----4-----------6-----------------------------|
   
Lead Guitar
Intro
e-----------------------------------------------------|
B-----------------------------------------------------|
G-----------------------------------------------------|
D-----------------------------------------------------|
A-10---10-8-------11---11-10-11-10---11-10-10-8-------|
E-----------11-8----------------------------------11--|

e----------------------------------------------|
B---------------------------------------8--8-9-|
G--------------------------8--8-10---10--------|
D-10-8-10-8-10---8-10---10---------------------|
A----------------------------------------------|
E----------------------------------------------|

e-----------------------------------------------------|
B-11-9-11-9---8---10---8------------------------------|
G-----------------------------------------------------|
D-----------------------------------------------------|
A-----------------------------------------------------|
E-----------------------------------------------------|

Second Lead Part
(same as first part of intro)

Solo
e-11--8-8-8-11-8--8-8-10--8-8-8-10-8--8-8-|
B-----------------------------------------|
G-----------------------------------------|
D-----------------------------------------|
A-----------------------------------------|
E-----------------------------------------|

e---------------------------------------------------------|
B-11--8-8-8-11-8--8-8-10-8-8-8----------------------------|
G------------------------------10-8-8-8-------------------|
D---------------------------------------10-8-8-8----------|
A---------------------------------------------------------|
E------------------------------------------------10-8-8-8-|
less
plus
Add to Songbook Print Version How to play lesson Submit videolesson
Click the best TAGS for this song:
None of them
Contributor: farktspt Correct

If you can not find the chords or tabs you want, look at our partner E-chords. If you are a premium member, you have total access to our video lessons.

If you find a wrong Bad To Me from Against me, click the correct button above.

login/signup
my songbooks
my recent views
my submits