tools Ultimate Tabs

Start AutoScroll Font Size Down Font Size Up

Find us on Facebook

chords
tabs
bass
ukulele keyboards
drums
flute
harmonica
guitar pro
video
Ultimate-Tabs

Perfídia

                                      2vezes 

|-8--7--8---10----8---7-8--7---------7 8--10--8-7--8--7------8-----------------------------   |-8---------------------------------10-----------------------------10-----10--8-----8--10------- 
|--------------------------------------------------------------------------------- ---10---------10-9 
|-------------------------------------------------------------------------------------------------------- 
|-------------------------------------------------------------------------------------------------------- 
|-------------------------------------------------------------------------------------------------------- 

|-8--7--8---10----8---7-8--7---------7 8--10--8-7--8--7------8----------------------10-8    |-8---------------------------------10-----------------------------10-----10--8-----8--10------- 
|--------------------------------------------------------------------------------- ---10--------------- 
|-------------------------------------------------------------------------------------------------------- 
|-------------------------------------------------------------------------------------------------------- 
|-------------------------------------------------------------------------------------------------------- 

Pesoal eu peguei ixto nu uovido esta é a melodia original....setiverem alguma kestao ke me keirao fazer é so mandar um e-mail ou adicionar: [email protected] 
less
plus
Add to Songbook Print Version How to play lesson Submit videolesson
Click the best TAGS for this song:
None of them
Contributor: WazaToxi Correct

If you can not find the chords or tabs you want, look at our partner E-chords. If you are a premium member, you have total access to our video lessons.

If you find a wrong Bad To Me from Alceu Valença, click the correct button above.

login/signup
my songbooks
my recent views
my submits