S Alejandro Sanz

El Aprendíz tab

Alejandro Sanz

tools Ultimate Tabs

Start AutoScroll Font Size Down Font Size Up

Find us on Facebook

chords
tabs
bass
ukulele
keyboards
drums
flute
harmonica
guitar pro
video
Ultimate-Tabs

El Aprendíz

lejandro Sanz-El Aprendíz 
 
           
INTRO: Dm A C A# Gm A Dm (BIS) 
 
e----5p3-----|--------------------| 
B---6---7p6h7|----5-6s8-6---------| 
G--7---------|---6-------7p6------| 
D-7----------|--7-----------7-----| 
A5-----------|-7-------------8p7h8| 
E------------|--------------------| 
 
e----------|------------|13-12h13p12-10 
B----------|------------|-------------- 
G----------|-10-9h10p9-7|-------------- 
D-8-7h8p7-5|------------|-------------- 
A----------|------------|-------------- 
E----------|------------|-------------- 
 
e------------------ 
B-8h10-8----8-8s10- 
G-9----9-10-9-9s10- 
D------------------ 
A------------------ 
E------------------ 
 
|-----riff 1-----| 
e-----5h6p5------|-13p12-13-13s15-17-17-17-| 
B----6-----8p6s10|-------------------------| 
G---7------------|-------------------------| 
D--7-------------|-------------------------| 
A-5--------------|-------------------------| 
E----------------|-------------------------| 
 
e-13-12h13p12-10---(10-10h12p10-10-10)*2- 
B---------------------------------------- 
G---------------------------------------- 
D---------------------------------------- 
A---------------------------------------- 
E---------------------------------------- 
 
e-12-13-12h13p12-10------------------- 
B-------------------9-10-9h10p9------- 
G------------------------------11-9-7- 
D------------------------------------- 
A------------------------------------- 
E------------------------------------- 
 
1. 
Dm                   A    
Tus besos saben tan amargos, 
 C           A#           Gm 
cuando te ensucias los labios, 
           A           Dm            
con mentiras, otra vez. 
 
(riff 2) 
e----------------------- 
B-10-11-11--10--10--8-6-  
G-10-12-12-10--10--9-7-- 
D----------------------- 
 
 
2. (igual a 1.) 
Dices que te estoy haciendo daño, 
que con el paso de los años, 
me estoy haciendo mas cruel. 
 
A.: 
  Gm                  A               A# 
Y es que yo nunca creí que te vería, 
           A#                 A 
remendando mis heridas,  
    Gm                A 
con girones de tu piel, 
 
e------------- 
B--10s8--6-6-- 
G-10-s9-7-7--- 
D------------- 
 
Gm                A        Dm 
De ti aprendió mi corazón, 
Gm               A          Dm 
de ti aprendió mi corazón, 
C#m7                       Gm   A          Gm  A 
no me reproches niña que no sepa darte amor. 
 
 
Ref.: 
    A# 
Me has enseñado tu 
           Gm              A               Gm 
tu has sido mi maestra para hacer sufrir 
  A#         A                        Dm   
Si alguna vez fui malo, lo aprendí de ti 
D7                                        Gm 
no digas que no entiendes como, puedo ser asi 
   C#m7                     Gm             A 
Si te estoy haciendo daño, lo aprendí de ti 
  A# 
Me has enseñado tu,  
          Gm           A             Dm 
maldigo mi inocencia, y te maldigo a ti, 
    D7                           Gm            
maldita la maestra y maldito el aprendiz, 
         A               Gm       A       Dm     
maldigo lo que hago, y te lo debo... a ti. 
 
e-------------------| 
B-10-10-8-8-6-6s5s6-| 
G-10-10-9-9-7-7s6s7-| 
D-------------------| 
 
Dm A C A# Gm A Dm 
 
e----------|--------------------| 
B----------|-6-6s8-8-8-10-11-10-| 
G-riff 1---|-7-7s9-9-9-10-12-10-| 
D----------|--------------------| 
A----------|--------------------| 
E----------|--------------------| 
 
e-13-13s15-15-15s17-17-17-v17-13-15---10- 
B-----------------------------------13--- 
G---------------------------------------- 
D---------------------------------------- 
A---------------------------------------- 
E---------------------------------------- 
 
e-10-12-13---------------------- 
B---------10-10-11-10----------- 
G--------------------12-10------ 
D-------------------------12-12- 
A------------------------------- 
E------------------------------- 
 
3.(igual a 1) 
Me duelen tus caricias por que noto, 
que tus manos son cristales rotos, 
bajo mis pies. riff 2 
 
4. 
Dm                   A    
Dices que te estoy haciendo daño, 
 C                           A# 
que con el paso de los años, 
  Bb - A               Dm 
me estoy haciendo mas cruel. 
 
B.(igual a A) 
Pero es que nunca creí que te vería, 
remendando mis heridas, 
con girones de tu piel. 
 
De ti aprendió mi corazón, 
de ti aprendió mi corazón, 
y ahora no me reproches que no sepa darte amor, 
que no sepa darte amor. 
 
Ref: 
    A# 
Me has enseñado tu, 
           Gm             A               Gm 
tu has sido mi maestra para hacer sufrir, 
  A#         A                        Dm   
Si alguna vez fui malo, lo aprendí de ti, 
D7                                  Gm 
no digas que no entiendes como, puedo ser asi, 
   C#m7                         Gm             A 
Si te estoy haciendo daño niña, lo aprendí de ti, 
  A# 
Me has enseñado tu,  
          Gm           A             Dm 
maldigo mi inocencia, te maldigo a ti, 
    D7                            Gm            
maldita la maestra y maldito el aprendiz, 
         A                Gm       A                     Dm     
maldigo lo que hago, maldigo lo que hago y te lo debo... a ti. 
 
 
e--------------10-10p9-9-9---9---                                                    
B-8s10-10-10-10------------------ 
G-------------------------------- 
D-------------------------------- 
A-------------------------------- 
E-------------------------------- 
 
e9-9s6-6-6--6-6s3-3-3s5-5----------------                                                    
B-------------------------7-8-8h10p8-7-8- 
G---------------------------------------- 
D---------------------------------------- 
A---------------------------------------- 
E---------------------------------------- 
 
e---------------13-13-13-13-13-12-12- 
B--------7-8-10---------------------- 
G-7-9-10----------------------------- 
D------------------------------------ 
A------------------------------------ 
E------------------------------------ 
 
e-12-12-10-10-9-9p7-7-7-5-7-- 
B---------------------------- 
G---------------------------- 
D---------------------------- 
A---------------------------- 
E---------------------------- 
 
_____________________________________ 
Cifrado por Ivanei Nunes  
less
plus
Add to Songbook Print Version How to play lesson Submit videolesson
Click the best TAGS for this song:
None of them
Contributor: 0110dani Correct

If you can not find the chords or tabs you want, look at our partner E-chords. If you are a premium member, you have total access to our video lessons.

If you find a wrong Bad To Me from Alejandro Sanz, click the correct button above.

login/signup
my songbooks
my recent views
my submits