S Alejandro Sanz

La Fuerza Del Corazon tab

Alejandro Sanz

Album:Best Of

Year:1999

tools Ultimate Tabs

Start AutoScroll Font Size Down Font Size Up

Find us on Facebook

chords
tabs
bass
ukulele keyboards
drums
flute
harmonica
guitar pro
video
Ultimate-Tabs

La Fuerza Del Corazon

Pónganle mucho feeling y les saldrá  
la canción que al final hace unas pisadas rápidas, 
pero simples con la práctica; es una canción muy bella,  
disfrutenla : 

Mirame, en nada me consigo concentrar 
ando despistado, todo lo hago mal 
soy un desastre, y no sé que está pasando 
Me gustas a rabiar y te deseo 
me llegas a desesperar 
es tan grande lo que siento por ti  
que tenerte no bastará  
que es esto que me invita a vivir  
que me da la ilusión 
que será esa fuerza que a todos  
nos une de dos en dos 
Será la fuerza del corazón 

Hasta que, (1) 
te abraze y los cuerpos lleguen  
a estorbar (1) 
tiemblo solo con la idea de rozar	(1) = 	G-----4--6/0-- 
tus labios llenos, de besos nuevos		D--6---------- 
No puedo dormir,				 
me robas mi tranquilidad 
alguien ha bordado tu cuerpo 
con hilos de mi ansiedad			 
De cinturón tus piernas cruzadas 
es mi espalda un reloj 
donde tus dedos son las agujas  
y las cuerdas del motor, 
que es la fuerza del corazón 

No, no 
VERSO 1: (2° guitarra) 
***************************** 
 Y es la fuerza que te lleva, 
e-------------------------- 
B-------------------------- 
G-------------------------- 
D------------------------3- 
A------------------------3- 
E------------9/----------1- 
 que te empuja y que te llena 
G-------------------------- 
D----------3--3------------ 
A----------3--3------------ 
E----------1--1------------ 

que te arrastra,  
G------------- 
D----------3-- 
A----------3-- 
E----------1-- 

y que te acerca a Dios 
G-------------------------- 
D----------3--3------------ 
A----------3--3------------ 
E----------1--1------------ 

Es un sentimiento casi una obsesión 
G---------------------------------- 
D----------4--------------4------4- 
A----------4--------------4------4- 
E----------2--------------2------2- 

si la fuerza es del corazón 
D--4--------------------6~~- 
A--4------------------------ 
E--2------------------------ 

Es algo que te lía 
D--------6/--------3- 
A------------------3- 
E------------------1- 
la descarga de energía  
D------------------3--3- 
A------------------3--3- 
E------------------1--1-                  
que te va quitando la razón	 
D----------3----------8~~- 
A----------3-------------- 
E----------1-------------- 
te hace tropezar, te crea confusión 
D----------4--------------4------4- 
A----------4--------------4------4- 
E----------2--------------2------2- 

seguro que es la fuerza del corazón 
D--4------------------------ 
A--4------------------------ 
E--2------------------------ 

es la fuerza que te lleva 
********************************* 
LEAD GUITAR(1° guitarra) 

e-------11----13-11-13-------11----13-11-13----- 
B----14----14-------------14----14-------------- 
G-13-------------------------------------------- 
D----------------------------------------------- 
A----------------------------------------------- 
E----------------------------------------------- 

e-----11-13-11-11----11/13--11--------- 
B--14-------------14------------------- 
G-------------------------------------- 

e----11-13-11--14-13-14---11-13-11--14-13-14--- 
B-11------------------------------------------- 
G---------------------------------------------- 

e-11-13-14--/16-14-14-13-------------- 
B--------------------------16~~~~----- 
G------------------------------------- 

No puedo pensar 
tendría que cuidarme más 
Como poco pierdo la vida 
y luego me la das 
que es lo que va  
cegando al amante 
que va por ahí señor, 
y no es más que un chiquillo 
travieso, provocador 
será la fuerza del corazón, no,no, no yeah 

(igual que verso 1)2 veces* * 

SOLO : 
..seguro que es la fuerza del corazón 

e-------------------------- 
B-------------------------- 
G------11-13--13/---------- 
D---11--------------------- 
A-------------------------- 
E-------------------------- 
uh , es la fuerza que te lleva  e--/13-- 

 que te arrastra y que te acerca a Dios 
              e--/11---		B---/14-	 

 es un sentimiento, casi una obsesión 
B---14~~-14------14-13-------14------ 
G----------------------15~~------15-- 
D------------------------------------ 

si la fuerza es del corazón 
e---------------------------------------- 
B---------------------------------------- 
G-----15p14p12---------------------------      (suena muy bajo) 
D---------------15p14p12----------------- 
A-------------------------15p14p12------- 
E------------------------------------9~-- 

no, no  no noo	 
e---------11--11/13----13-16---13--16--13-16- 
B-----14------------------------------------- 
G--13---------------------------------------- 

no no, yeah	 
e---11-13-11-13-11-11/13--11/13-- 
B-------------------------------- 
G-------------------------------- 

e-11----------------------------- 
B-----11--14--14/16--14/16~~~---- 
G-------------------------------- 

e-----------11--11/13~~-----13-11------------------------- 
B----11--14------------------------11--14--14/16-14/16~~-- 
G-13------------------------------------------------------ 

e--16----16---------------- 
B-----16----16~~----------- 
G-------------------------- 

e-------------------------------- 
B--------------11-----9--9/11---- 
G-------10-13-----10------------- 
D-11-13-------------------------- 
A-------------------------------- 
E-------------------------------- 

e-----------------------10~~----- 
B-------9----11------------------ 
G----10---10----10--------------- 
D-11----------------------------- 
A-------------------------------- 
E-------------------------------- 

e--13~------11--13--13/14~~------11--13--14---14/18~~--- 
B--------13--------------------------------------------- 

e----20-18-20-23--18/20-18--16~~~-- 
B---------------------------------- 

Esta es la parte rápida  
e---20p18p16(5 veces)----------------------- 
B----------------------19p17p15(2 veces)---- 
G------------------------------------------- 
D------------------------------------------- 
A------------------------------------------- 
E------------------------------------------- 

e------------------------------------------- 
B--17p15p14-(3 veces)----------------------- 
G---------------------16p15p13-(3 veces)---- 
D------------------------------------------- 
A------------------------------------------- 
E------------------------------------------- 

D--15p13p12-(2 veces)----------------------- 
A---------------------16p14p13-(2 veces)---- 
E------------------------------------------- 

e-------------------------------- 
B-------------------------------- 
G-------------------------------- 
D-------------------------------- 
A-------------------------------- 
E--16p15p13-16p15p13-12-13------- 

Transcripción hecha por erick Bravo Rojas (Peru) 
Dudas : [email protected] 
less
plus
Add to Songbook Print Version How to play lesson Submit videolesson
Click the best TAGS for this song:
None of them
Contributor: Claujget Correct

If you can not find the chords or tabs you want, look at our partner E-chords. If you are a premium member, you have total access to our video lessons.

If you find a wrong Bad To Me from Alejandro Sanz, click the correct button above.

login/signup
my songbooks
my recent views
my submits