Alex e Yvan

Amor De Violeiro chords

Alex e Yvan

tools Ultimate Tabs

Start AutoScroll Font Size Down Font Size Up

Find us on Facebook

chords
tabs
bass
ukulele keyboards
drums
flute
harmonica
guitar pro
video
Ultimate-Tabs

Amor De Violeiro

Afinação: Eb Ab Db Gb Bb eb

Solo 


E|-10-10-8--7-8/10-10-10---10/12-12---12-12-10-8-7-7h8--------------------------------------| 
B|-12-12-10-8-8/10-10-10---10/12-12---12-12-10-8-8- 8--10-7h8-8-8-10-12-9--7-7-8-10-8--13-13| 
G|-----------------------------------------------------9-- 7--7-7-7--12-10-7-7-7-7--9--12-12| 
D|------------------------------------------------------------------------------------------| 
A|------------------------------------------------------------------------------------------| 
E|------------------------------------------------------------------------------------------| 




E|---------------------------| 
B|-12-10-7h8-7---------------| 
G|-12-9--7---7---------------| 
D|---------------------------| 
A|---------------------------| 
E|---------------------------| 
G Moça eu não sei falar D coisas bonitas pra te conquistar C G tenho só uma viola moça eu só sei cantar G moça eu não tenho dinheiro D minha riqueza eu vou te contar C G é o braço da viola moça eu só sei cantar D C G moça se vocë parar um pouco pra me ouvir D em alguns minutos vai me descobrir C G enxergar o fundo do meu coração D C G moça eu ja sei que o papo agora é só ficar D mas eu to querendo mesmo é me casar C G se me achar careta te peço perdão C D G Primeira Passagem mas eu quero falar com seu pais pedir a sua mão D C G e se vocë aceitar um amor de violeiro D o seu coração vai ser meu paradeiro C G Primeira Passagem eu e a viola e uma eterna canção D C G moça eu não tenho pressa pra te conquistar G7 C o braço da viola vai me consolar D G até vocë abrir de vez seu coração Solo do Início Segunda Passagem Refrão Riff Final
Primeira Passagem 

(G F#m Em) 

E|------| 
B|-8-7-5| 
G|-7-6-4| 
D|-5-4-2| 
A|------| 
E|------| 


Segunda Passagem 

    (Em) 
E|---| 
B|-5-| 
G|-4-| 
D|-2-| 
A|---| 
E|---| 


Riff Final 


E|-----------------------| 
B|-------13----12----10-8| 
G|----------------------7| 
D|-12/13----12----10----5| 
A|-----------------------| 
E|-----------------------|
less
plus
Add to Songbook Print Version How to play lesson Submit videolesson
Click the best TAGS for this song:
None of them
Contributor: blaceddi Correct

If you can not find the chords or tabs you want, look at our partner E-chords. If you are a premium member, you have total access to our video lessons.

If you find a wrong Bad To Me from Alex e Yvan, click the correct button above.

login/signup
my songbooks
my recent views
my submits