S Alice in Chains

Dam That River bass

Alice in Chains

Album:Dirt

Year:1992

tools Ultimate Tabs

Start AutoScroll Font Size Down Font Size Up

Find us on Facebook

chords
tabs
bass
ukulele
keyboards
drums
flute
harmonica
guitar pro video
Ultimate-Tabs

Dam That River

Tune 1/2 step down on all strings and drop the Eb to a Db.

Main                                            x19
Gb-------------------------------------------------|
Db*-----------------------------------------------*|
Ab*-----------------------------------------------*|
Db--0-3-4-5-0--5-6-7-6-5-3-0-3-4-5-0--5-6-7-6-5-3--|

Guitar solo
Gb---------------------------------------------------------------------------|
Db---------------------------------------------------------------------------|
Ab-3----------------------5-----------5--------------------------------------|
Db---5-4-3--3-3-3-3-3-3-3---5--5--3-0---0-0--0-0-0-0--7-6-5-3--3-3-3-3-3-3-3-|

Gb--------------------------------------------------------------|
Db--------------------------------------------------------------|
Ab-5-----------5-3h5-5--5---------------------------------------|
Db---5--5--3-0------------0-0--7-6-5-3--3-3-3-3-3-3-3-3-3-3-3-3-|

Gb------------------------------------------------------------|
Db------------------------------------------------------------|
Ab-5------------5-----------------------------------5---------|
Db---5--5--3-0----0-0-0-0-0--7-6-5-3--3-3-3-3-3-3-3---5-4-3-0-| 
less
plus
Add to Songbook Print Version How to play lesson Submit videolesson
Click the best TAGS for this song:
None of them
Contributor: akuspanf Correct

If you can not find the chords or tabs you want, look at our partner E-chords. If you are a premium member, you have total access to our video lessons.

If you find a wrong Bad To Me from Alice in Chains, click the correct button above.

login/signup
my songbooks
my recent views
my submits