S Alice in Chains

Hate to Feel tab

Alice in Chains

Album:Dirt

Year:1992

tools Ultimate Tabs

Start AutoScroll Font Size Down Font Size Up

Find us on Facebook

chords
tabs
bass
ukulele
keyboards
drums
flute
harmonica
guitar pro
video
Ultimate-Tabs

Hate to Feel

Hate To Feel by Alice In Chains 
(2 versions) 
 
 
From: Grunge Boy 
 
Here's Hate to Feel, My Favorite alice in chains song 
 
Tuning Eb,Ab,Db,Gb,Bb,Eb. 
Intro/Verse 
 
1-------------------------------- 
2-------------------------------- 
3-------------------------------- 
4---6--5--4---------------------- 
5---7--6--5-----6--5--4---------- 
6---------------7--6--5--0-3~~~~~ 
 
Pre Chorus 
 
1-------------- 
2-------------- 
3------3------3             X4 
4--2-2-3--2-2-3 
5--2-2-1--2-2-1  
6--0-0----0-0-- 
 
then A pick scrape, then 
 
1---------------------- 
2---------------------- 
3----------------------    X4 
4--2-2-8--2-2-8-------- 
5--2-2-8--2-2-8-------- 
6--0-0-6--0-0-6-(5)-(5) 
 
Then The Next part goes 
 
1--------------------------------- 
2--------------------------------- 
3------------------3-3-3-3-3------ 
4--2-2-2-2-3-3-3-3-3-3-3-3-3-2-2-2 
5--2-2-2-2-3-3-3-3-1-1-1-1-1-2-2-2 
6--0-0-0-0-1-1-1-1-----------0-0-0 
 
then the "wish I couldn't feel at all" part goes 
 
1--------------- 
2--------------- 
3--------------3        And That repeats a few times 
4--2-2-2-2-2-2-3 
5--2-2-2-2-2-2-1 
6--0-0-0-0-0-0-- 
 
 
This is the end of hate to feel 
1------------------------------------------------------- 
2-12-12-12-12-12-12-12-12-12-12-12-12 
3-12-12-12-12-12-12-12-12-12-12-12-12 
4------------------------------------------------------- 
5------------------------------------------------------- 
6------------------------------------------------------- 
 
 
There you are. Once again, I don't feel like figuring out the solo 
 
less
plus
Add to Songbook Print Version How to play lesson Submit videolesson
Click the best TAGS for this song:
None of them
Contributor: angemast Correct

If you can not find the chords or tabs you want, look at our partner E-chords. If you are a premium member, you have total access to our video lessons.

If you find a wrong Bad To Me from Alice in Chains, click the correct button above.

login/signup
my songbooks
my recent views
my submits