S Alice in Chains

Heaven Beside You bass

Alice in Chains

Album:Greatest Hits - Alice In Chains

Year:2001

tools Ultimate Tabs

Start AutoScroll Font Size Down Font Size Up

Find us on Facebook

chords
tabs
bass
ukulele
keyboards
drums
flute
harmonica
guitar pro video
Ultimate-Tabs

Heaven Beside You


intro
G----------------------------
D--2----0--------2-----------about 12 times i think
A----0-2--2-0-0-0--0-------0-
E-0------------------3-3-3---

chorus
G----------------------------
D----------------------------
A-----------3-33-0-3-2-2-2202
E-3-3333-0-3-----------------

Bridge twice
G----------------------------------------
D----------------------------------------
A----------------------------------------
E-4444-4444-5555-5555-6666-6666-7777-7777

After Bridge

G---------------------------
D--2------------------------
A----1-2-----1--------------
E-0----3--3-22--2-----------
 
less
plus
Add to Songbook Print Version How to play lesson Submit videolesson
Click the best TAGS for this song:
None of them
Contributor: matfjmar Correct

If you can not find the chords or tabs you want, look at our partner E-chords. If you are a premium member, you have total access to our video lessons.

If you find a wrong Bad To Me from Alice in Chains, click the correct button above.

login/signup
my songbooks
my recent views
my submits