Alice in Chains

Sludge Factory bass

Alice in Chains

Album:Unplugged

Year:1996

tools Ultimate Tabs

Start AutoScroll Font Size Down Font Size Up

Find us on Facebook

Ultimate-Tabs

Sludge Factory

Relative dropped D tuning.
Use a flanger or run it through an FX unit to get a nice sound.

Verse                                 x16
Gb---------------------------------------|
Db*-------------------------------------*|
Ab*----------5----------5-----------5---*|
Db--1-3\0--0---0-0--0-0---0-0-0-0-0---0--|

Chorus
Gb----------------------------------------|
Db----------------------------------------|
Ab--------------------------------------3-|
Db-1-3--7--7--7-7-7-5-4-3--3--3--3--3-5---|

Gb-----------------------------------------|
Db-----------------------------------------|
Ab---------------------------------3---3-5-|
Eb-7--7--7-7-7-5-4-3--3--3--3--3-5---3-----|

Gb-----------------------------------|-----------------------------|
Db-----------------------------------|-----------------------------|
Ab---------------------------------3-|-----------------------------|
Db-7--7--7-7-7-5-4-3--3--3--3--3-5---|-7--7--7-7-7-5-4-3--3--3-0-0-|

Verse x13

Chorus
Gb-----------------------------------------|
Db*----------------------------------------|
Ab*--------------------------------------3-|
Db--1-3--7--7--7-7-7-5-4-3--3--3--3--3-5---|
    ^ ^Second time without these two notes
Gb-----------------------------------------|
Db-----------------------------------------|
Ab---------------------------------3---3-5-|
Eb-7--7--7-7-7-5-4-3--3--3--3--3-5---3-----|

Gb------------------------------------|-----------------------------|
Db-----------------------------------*|-----------------------------|
Ab---------------------------------3-*|-----------------------------|
Db-7--7--7-7-7-5-4-3--3--3--3--3-5----|-7--7--7-7-7-5-4-3--3--3-0-0-|

Verse x4
Outro
Gb-----------|
Db-----------|
Ab-----------|
Db-1-3\0-(0)-| The End.
less
plus
Add to Songbook Print Version How to play lesson Submit videolesson
Click the best TAGS for this song:
None of them
Contributor: lucaNegr Correct

If you can not find the chords or tabs you want, look at our partner E-chords. If you are a premium member, you have total access to our video lessons.

If you find a wrong Bad To Me from Alice in Chains, click the correct button above.

login/signup
my songbooks
my recent views
my submits