Alive

Hillsong Young And Free bass

Alive

tools Ultimate Tabs

Start AutoScroll Font Size Down Font Size Up

Find us on Facebook

chords
tabs
bass
ukulele
keyboards
drums
flute
harmonica
guitar pro
video
Ultimate-Tabs

Hillsong Young And Free

-------------------------------------------------------------------------------
                         Alive - Hillsong Young And Free
-------------------------------------------------------------------------------
Tabbed by: Simen Andreas Knudsen
E-mail: 

Tuning: E Standard (E A D G)

G|---------------------------------------------------------------------------|
D|---------------------------------------------------------------------------|
A|----4------------------------4-----2--------4--------------------4-----2---|
E|--------4-----5----------5----------------------4-----5-------5------------|

G|-----------6---------------------------------------------------------------|
D|-------------------------------------7----------------------7--------------|
A|----2----4----------------------------------------------------4--4---------|
E|--------------4--4----5------4slide5---4--5--5------4slide5----------------|

G|-----------------4---------------------------------------------------------|
D|-----------------------------------------------7---------------------7-----|
A|----2---1slide2----------1---2--2--------------------------------------4--4|
E|---------------------------------------4slide5---4--5--5-----4slide5-------|

G|-----------------4----------------|--6----------------------6---4----------|
D|----------------------------------|-----6---7-----------7------------------|
A|----2---1slide2----------1---1--1-|-4----------------------4---2-----------|
E|----------------------------------|----4---5-----------5-------------------|

G|-----6------------------6---4--|-------------------------------------------|
D|---------6---7------7----------|-------------------------------------------|
A|----4------------------4---2---|-------------------------------------------|
E|--------4---5------5-----------|-------------------------------------------|
     Repeat basic intro here
    Do intro again once the other instruments kick in
     Go back to basics
    Drop the bass as necessary
===============================================================================
less
plus
Add to Songbook Print Version How to play lesson Submit videolesson
Click the best TAGS for this song:
None of them
Contributor: danaLora Correct

If you can not find the chords or tabs you want, look at our partner E-chords. If you are a premium member, you have total access to our video lessons.

If you find a wrong Bad To Me from Alive, click the correct button above.

login/signup
my songbooks
my recent views
my submits