All Time Low

A Love Like War bass

All Time Low

tools Ultimate Tabs

Start AutoScroll Font Size Down Font Size Up

Find us on Facebook

chords tabs
bass
ukulele keyboards
drums
flute
harmonica
guitar pro video
Ultimate-Tabs

A Love Like War

   Verse 0:23
F#|---------------------------------------------------------------------|
C#|---------------------------------------------------------------------|
G#|-----------------5-------------------4-4-4-4-------------------------|
C#|-12\-0-0-0-0---------2---------------------------7---4---------------|
    4 + 1 + 2 + 3 + 4 + 1 + 2 + 3 + 4 + 1 + 2 + 3 + 4 + 1 + 2 + 3 + 4 + 

F#|-----------------------------------------------------------------|
C#|-----------------------------------------------------------------|
G#|-------------5-------------------4-4-4-4-------------------------|
C#|-0-0-0-0---------2---------------------------7---4---------------|
    1 + 2 + 3 + 4 + 1 + 2 + 3 + 4 + 1 + 2 + 3 + 4 + 1 + 2 + 3 + 4 + 

F#|-----------------------------------------------|
C#|-----------------------------------------------|
G#|-------------0---------------------------/---\-|
C#|-----------------4-----------------------------|
    1 + 2 + 3 + 4 + 1 + 2 + 3 + 4 + 1 + 2 + 3 + 4

   Pre-Chorus 0:40
F#|-----------------------------------------------------------------|
C#|-----------------------------------------------------------------|
G#|-5-5-5-5-5-5-5-5-5-5-5-5-5-5-4-4-2-2-2-2-2-2-2-2-----------------|
C#|-------------------------------------------------2-2-2-2-2-2-2-2-|
    1 + 2 + 3 + 4 + 1 + 2 + 3 + 4 + 1 + 2 + 3 + 4 + 1 + 2 + 3 + 4 + 

F#|-----------------------------------------------------------------|
C#|-----------------------------------------------------------------|
G#|---------------------------------0-0-0-0-0-0-0-0-0-0-0-0-0-0-0-0-|
C#|-4-4-4-4-4-4-4-4-4-4-4-4-4-4-4-4---------------------------------|
    1 + 2 + 3 + 4 + 1 + 2 + 3 + 4 + 1 + 2 + 3 + 4 + 1 + 2 + 3 + 4 +

F#|-----------------------------------------------------------------|
C#|-----------------------------------------------------------------|
G#|-5-5-5-5-5-5-5-5-5-5-5-5-5-5-0-0-2-2-2-2-2-2-2-2-----------------|
C#|-------------------------------------------------2-2-2-2-2-2-2-2-|
    1 + 2 + 3 + 4 + 1 + 2 + 3 + 4 + 1 + 2 + 3 + 4 + 1 + 2 + 3 + 4 + 

F#|-----------------------------------------------------------------|
C#|-----------------------------------------------------------------|
G#|---------------------------------0-0-0-0-0-0-0-0-0-0-0-0---/---\-|
C#|-4-4-4-4-4-4-4-4-4-4-4-4-4-4-4-4---------------------------------|
    1 + 2 + 3 + 4 + 1 + 2 + 3 + 4 + 1 + 2 + 3 + 4 + 1 + 2 + 3 + 4 +
   
   Chorus 1:03
F#|-----------------------------------------------------------------|
C#|-----------------------------------------------------------------|
G#|-------------5-------------------5-5-5-5-5-0-0-------------------|
C#|-0-0-0-0-0-0-----2-----/---\-------------------4-------------/-/-|
    1 + 2 + 3 + 4 + 1 + 2 + 3 + 4 + 1 + 2 + 3 + 4 + 1 + 2 + 3 + 4 + 

F#|-----------------------------------------------------------------|
C#|-----------------------------------------------------------------|
G#|-------------5-------------------004-0-4-0-4-0-0-----------------|
C#|-0-0-0-0-0-0-----2-----/---\---------------------4-\-------------|
    1 + 2 + 3 + 4 + 1 + 2 + 3 + 4 + 1 + 2 + 3 + 4 + 1 + 2 + 3 + 4 + 

   Verse 1:15
F#|-----------------------------------------------------------------|
C#|-----------------------------------------------------------------|
G#|-----------------------------------------------------------------|
C#|-------------------------------------------------4-\-------------|
    1 + 2 + 3 + 4 + 1 + 2 + 3 + 4 + 1 + 2 + 3 + 4 + 1 + 2 + 3 + 4 +

F#|-------------------------------------------------------------------|
C#|o-----------------------------------------------------------------o|
G#|o-5-5-5-5-----5-------------------4-4-4-4-------------------------o|
C#|------------------2---------------------------7---4----------------|x2
     1 + 2 + 3 + 4 + 1 + 2 + 3 + 4 + 1 + 2 + 3 + 4 + 1 + 2 + 3 + 4 + 

F#|-----------------------------------------------------------------|
C#|-----------------------------------------------------------------|
G#|-5-5-5-5-------------------------4-4-4-4-------------------------|
C#|-------------0---2---------------------------7---4---------------|
    1 + 2 + 3 + 4 + 1 + 2 + 3 + 4 + 1 + 2 + 3 + 4 + 1 + 2 + 3 + 4 +

F#|-----------------------------------------------|
C#|-----------------------------------------------|
G#|-------------0---------------------------/---\-|
C#|-----------------4-----------------------------|
    1 + 2 + 3 + 4 + 1 + 2 + 3 + 4 + 1 + 2 + 3 + 4

   Pre-Chorus 1:43
F#|-----------------------------------------------------------------|
C#|-----------------------------------------------------------------|
G#|-5-5-5-5-5-5-5-5-5-5-5-5-5-5-4-4-2-2-2-2-2-2-2-2-----------------|
C#|-------------------------------------------------2-2-2-2-2-2-2-2-|
    1 + 2 + 3 + 4 + 1 + 2 + 3 + 4 + 1 + 2 + 3 + 4 + 1 + 2 + 3 + 4 + 

F#|-----------------------------------------------------------------|
C#|-----------------------------------------------------------------|
G#|---------------------------------0-0-0-0-0-0-0-0-0-0-0-0-0-0-0-0-|
C#|-4-4-4-4-4-4-4-4-4-4-4-4-4-4-4-4---------------------------------|
    1 + 2 + 3 + 4 + 1 + 2 + 3 + 4 + 1 + 2 + 3 + 4 + 1 + 2 + 3 + 4 +

F#|-----------------------------------------------------------------|
C#|-----------------------------------------------------------------|
G#|-5-5-5-5-5-5-5-5-5-5-5-5-5-5-0-0-2-2-2-2-2-2-2-2-----------------|
C#|-------------------------------------------------2-2-2-2-2-2-2-2-|
    1 + 2 + 3 + 4 + 1 + 2 + 3 + 4 + 1 + 2 + 3 + 4 + 1 + 2 + 3 + 4 + 

F#|-----------------------------------------------------------------|
C#|-----------------------------------------------------------------|
G#|---------------------------------0-0-0-0-0-0-0-0-0-0-0-0---/---\-|
C#|-4-4-4-4-4-4-4-4-4-4-4-4-4-4-4-4---------------------------------|
    1 + 2 + 3 + 4 + 1 + 2 + 3 + 4 + 1 + 2 + 3 + 4 + 1 + 2 + 3 + 4 +

   Chorus 2:07
F#|-----------------------------------------------------------------|
C#|-----------------------------------------------------------------|
G#|-------------5-------------------5-5-5-5-5-0-0-------------------|
C#|-0-0-0-0-0-0-----2-----/---\-------------------4-------------/-/-|
    1 + 2 + 3 + 4 + 1 + 2 + 3 + 4 + 1 + 2 + 3 + 4 + 1 + 2 + 3 + 4 + 

F#|-----------------------------------------------------------------|
C#|-----------------------------------------------------------------|
G#|-------------5-------------------004-0-4-0-4-0-0-----------------|
C#|-0-0-0-0-0-0-----2-----/---\---------------------4-\---------/-\-|
    1 + 2 + 3 + 4 + 1 + 2 + 3 + 4 + 1 + 2 + 3 + 4 + 1 + 2 + 3 + 4 + 

   Solo 2:19
F#|-----------------------------------------------------------------|
C#|-----------------------------------------------------------------|
G#|-------------5-------------------5-5-5-5-5-0-0-------------------|
C#|-0-0-0-0-0-0-----2-----/---\-------------------4-------------/-/-|
    1 + 2 + 3 + 4 + 1 + 2 + 3 + 4 + 1 + 2 + 3 + 4 + 1 + 2 + 3 + 4 + 

F#|-----------------------------------------------------------------|
C#|-----------------------------------------------------------------|
G#|-------------5-------------------5-5-5-5-------------------------|
C#|-0-0-0-0-0-0-----2-----/---\---------------2---4---4-4-4-4-4-4-4-|
    1 + 2 + 3 + 4 + 1 + 2 + 3 + 4 + 1 + 2 + 3 + 4 + 1 + 2 + 3 + 4 + 

   Bridge 2:31
F#|-----------------------------------------------------------------|
C#|-----------------------------------------------------------------|
G#|-----------------------------------------------------------------|
C#|-------------------------------------------------------------12\-|
    1 + 2 + 3 + 4 + 1 + 2 + 3 + 4 + 1 + 2 + 3 + 4 + 1 + 2 + 3 + 4 + 

F#|-----------------------------------------------------------------|
C#|-----------------------------------------------------------------|
G#|---------------------------------0-0-0-0-0-1/1212121212----------|
C#|-4-4-4-4-4-4-4-4-4-4-4-4-4-4-4-4---------------------------------|
    1 + 2 + 3 + 4 + 1 + 2 + 3 + 4 + 1 + 2 + 3 + 4 + 1 + 2 + 3 + 4 + 

   Pre-Chorus 2:43 x2
F#|------------------------------------------------------------------|
C#|o-----------------------------------------------------------------|
G#|o-------------------------5-5-4-4-2-2-2-2-2-2-2-2-----------------|
C#|--0-0-0-0-0-0-0-0-0---0-0-------------------------2---2-2/14141414|
     1 + 2 + 3 + 4 + 1 + 2 + 3 + 4 + 1 + 2 + 3 + 4 + 1 + 2 + 3 + 4 + 

F#|------------------------------------------------------------------|
C#|-----------------------------------------------------------------o|
G#|---------------------------------0-0-0-0-0-1/1212121212----------o|
C#|-4-4-4-4-4---4-4-4-4-4--------------------------------------------|
    1 + 2 + 3 + 4 + 1 + 2 + 3 + 4 + 1 + 2 + 3 + 4 + 1 + 2 + 3 + 4 +

   Chorus 3:06
F#|-----------------------------------------------------------------|
C#|-----------------------------------------------------------------|
G#|-------------5-------------------5-5-5-5-5-0-0-------------------|
C#|-0-0-0-0-0-0-----2-----/---\-------------------4-------------/-/-|
    1 + 2 + 3 + 4 + 1 + 2 + 3 + 4 + 1 + 2 + 3 + 4 + 1 + 2 + 3 + 4 + 

F#|-----------------------------------------------------------------|
C#|-----------------------------------------------------------------|
G#|-------------5-------------------004-0-4-0-4-0-0-----------------|
C#|-0-0-0-0-0-0-----2-----/---\---------------------4-\---------/-\-|
    1 + 2 + 3 + 4 + 1 + 2 + 3 + 4 + 1 + 2 + 3 + 4 + 1 + 2 + 3 + 4 + 

   Outro
F#|-----------------------------------------------------------------|
C#|-----------------------------------------------------------------|
G#|-------------5-------------------5-5-5-5-5-0-0-------------------|
C#|-0-0-0-0-0-0-----2-----/---\-------------------4-------------/-/-|
    1 + 2 + 3 + 4 + 1 + 2 + 3 + 4 + 1 + 2 + 3 + 4 + 1 + 2 + 3 + 4 + 

F#|-----------------------------------------------------------------|
C#|-----------------------------------------------------------------|
G#|-------------5-------------------4-4-4-4-4-----------------------|
C#|-0-0-0-0-0-0-----2-----/---\-----------------2---4-\-------------|
    1 + 2 + 3 + 4 + 1 + 2 + 3 + 4 + 1 + 2 + 3 + 4 + 1 + 2 + 3 + 4 +

Tabbed By Jack Mills
less
plus
Add to Songbook Print Version How to play lesson Submit videolesson
Click the best TAGS for this song:
None of them
Contributor: stanida2 Correct

If you can not find the chords or tabs you want, look at our partner E-chords. If you are a premium member, you have total access to our video lessons.

If you find a wrong Bad To Me from All Time Low, click the correct button above.

login/signup
my songbooks
my recent views
my submits