All Time Low

Dear Maria Count Me In bass

All Time Low

Album:So Wrong, It's Right

Year:2007

tools Ultimate Tabs

Start AutoScroll Font Size Down Font Size Up

Find us on Facebook

Ultimate-Tabs

Dear Maria Count Me In

Dear Maria, Count Me In

Bassist:Zach Merrick
Tuning: Drop D

Bass enters at (0:12)
Intro
G|-------------------------------------------------------------------------|
D|-----------------------------------9--7----------------------------------|
A|------------------------------------9------------------------------------|
D|-5555555555555555-7777777777777777-----0000000000000000-4444444444444444-|

Verse 1
G|---------------------------------------------------------------------|
D|---------------------------------------------------------------------|
A|-5555555555555555----------------------------------------------------|
D|------------------5555555555555555-2222222222222222-7777777777777777-|x2

G|-------------------|
D|-------------------|
A|-------------------|
D|-77777777-88888888-|

Chorus
G|-------------------------------------------------------------------9-7-----|
D|-------------------------------------------------------------9-7-------9-7-|
A|-----------------------------------------------------------------7---------|
D|-9999999999999999-5555555555555555-0000000000000000-77777777---------------|


G|---------------------------------------------------------------------|
D|---------------------------------------------------------------------|
A|---------------------------------------------------------------------|
D|-9999999999999999-5555555555555555-0000000000000000-7777777777777777-|

Intro x1

Verse 2
G|---------------------------------------------------------------------|
D|---------------------------------------------------------------------|
A|-5555555555555555----------------------------------------------------|
D|------------------5555555555555555-2222222222222222-7777777777777777-|


G|---------------------------------------------------------------------|
D|---------------------------------------------------------------------|
A|-5-5-----------------------------------------------------------------|
D|-----5555555555555555-2~-77777777-88888888---------------------------|

Chorus x1

No Bass Until (2:19)
Bridge
G|----------------------------------------------------|
D|----------------------------------------------------|
A|----------------------------------------------------|
D|-7-0~-77-44-55--55-77-00--77-44-5555555555555555-99-|

Last Chorus (2:32)

G|----------------------------------------------------|
D|----------------------------------------------------|
A|----------------------------------------------------|
D|-5555555555555555-0000000000000000-7777777777777777-|


G|------------------------------------------------------------------------|
D|------------------------------------------------------------------------|
A|---------------------------------------------------------------------5~-|
D|-9999999999999999-5555555555555555-0000000000000000-7777777777777777----|



less
plus
Add to Songbook Print Version How to play lesson Submit videolesson
Click the best TAGS for this song:
None of them
Contributor: zonushea Correct

If you can not find the chords or tabs you want, look at our partner E-chords. If you are a premium member, you have total access to our video lessons.

If you find a wrong Bad To Me from All Time Low, click the correct button above.

login/signup
my songbooks
my recent views
my submits