All Time Low

Holly Would You Turn Me On bass

All Time Low

tools Ultimate Tabs

Start AutoScroll Font Size Down Font Size Up

Find us on Facebook

chords tabs
bass
ukulele keyboards
drums
flute
harmonica
guitar pro video
Ultimate-Tabs

Holly Would You Turn Me On

Intro (repeat until insturment intro)
"When you gunna give it up.."
G--------------|
D--------------|
A-2~~~---------|
E-----2~~~0~~~-|

Intro 2
*Just Music*
G-----------------------------------------|
D-----------------------------------------|
A-2222222222------------------------------|
E-----------222222222-444444444-000000000-|

"You are the taste of something sweet..."
G---------------------------------------------------|
D--------------------222111-------------------------|
A-4444444-----2222222------444444------222222222222-|
E---------2222222----------------222222-------------|

"You left Your mark dragged down my back"
G---------------------------------------------------|
D--------------------222111-------------------------|
A-4444444-----2222222------444444------222222222222-|
E---------2222222----------------222222-------------|

"Too much of you is never enough..."
G-------|
D-------|
A-------|
E-4~2~0~

"When you gunna give it up..."
Chorus
G-----------------------------|
D-----------------------------|
A-22222222--------------------|
E---------222222222-000000000-|


Intro 2
*Just Music*
G-----------------------------------------|
D-----------------------------------------|
A-2222222222------------------------------|
E-----------222222222-444444444-000000000-|

"Just one fix to keep me in the mix..."
G---------------------------------------------------|
D--------------------222111-------------------------|
A-4444444-----2222222------444444------222222222222-|
E---------2222222----------------222222-------------|

"Drove all night I'm the deer in your headlights..."
G--------------------------------------------------|
D--------------------222111------------------------|
A-4(stop)------222222-------444444------2222222222-|
E--------222222-------------------222222-----------|

"Too much of you is never enough..."
G------------------|
D------------------|
A------------------|
E-4~2~0~-0-0-0-0-0-|

"When you gunna give it up..."
Chorus
G-----------------------------|
D-----------------------------|
A-22222222--------------------|
E---------222222222-000000000-|

"You took what you wanted, you got it...
G-----------------------------------------|
D-----------------------------------------|
A-----------------------------------------|
E-4444-2222-7777-0000-4444-2222-000000000-|

"That you gave me you made me..."
G-----------------------------------------|
D-----------------------------------------|
A-----------------------------------------|
E-4444-2222-7777-0000-4444-2222-000000000-|

"So when you gunna give it up..."
G--------------------------|
D--------11-22-------------|
A-22----------22-----------|
E---22-00-------22-0000000-|

Chorus
"Just another pretty face..."
G-----------------------------|
D-----------------------------|
A-22222222--------------------|
E---------222222222-000000000-|

Thats it! fun to play...very fun. I just learned it on guitar today and thought i'd tab 
bass. Hope you enjoy! any questions? e-mail me at [email protected]
less
plus
Add to Songbook Print Version How to play lesson Submit videolesson
Click the best TAGS for this song:
None of them
Contributor: Madpholy Correct

If you can not find the chords or tabs you want, look at our partner E-chords. If you are a premium member, you have total access to our video lessons.

If you find a wrong Bad To Me from All Time Low, click the correct button above.

login/signup
my songbooks
my recent views
my submits